  0
SECTION
  2
HEADER
  9
$ACADVER
  1
AC1015
  9
$ACADMAINTVER
 70
     6
  9
$DWGCODEPAGE
  3
ANSI_1252
  9
$INSBASE
 10
0.0
 20
0.0
 30
0.0
  9
$EXTMIN
 10
0.0
 20
0.0
 30
0.0
  9
$EXTMAX
 10
406.4
 20
304.8
 30
0.0
  9
$LIMMIN
 10
0.0
 20
0.0
  9
$LIMMAX
 10
406.4
 20
304.8
  9
$ORTHOMODE
 70
     0
  9
$REGENMODE
 70
     1
  9
$FILLMODE
 70
     1
  9
$QTEXTMODE
 70
     0
  9
$MIRRTEXT
 70
     1
  9
$LTSCALE
 40
1.0
  9
$ATTMODE
 70
     1
  9
$TEXTSIZE
 40
6.35
  9
$TRACEWID
 40
1.0
  9
$TEXTSTYLE
  7
Standard
  9
$CLAYER
  8
0
  9
$CELTYPE
  6
ByLayer
  9
$CECOLOR
 62
   256
  9
$CELTSCALE
 40
1.0
  9
$DISPSILH
 70
     0
  9
$DIMSCALE
 40
1.0
  9
$DIMASZ
 40
1.0
  9
$DIMEXO
 40
0.9906
  9
$DIMDLI
 40
3.75
  9
$DIMRND
 40
0.0
  9
$DIMDLE
 40
0.0
  9
$DIMEXE
 40
0.9906
  9
$DIMTP
 40
0.0
  9
$DIMTM
 40
0.0
  9
$DIMTXT
 40
1.0
  9
$DIMCEN
 40
2.5
  9
$DIMTSZ
 40
0.0
  9
$DIMTOL
 70
     0
  9
$DIMLIM
 70
     0
  9
$DIMTIH
 70
     1
  9
$DIMTOH
 70
     1
  9
$DIMSE1
 70
     0
  9
$DIMSE2
 70
     0
  9
$DIMTAD
 70
     1
  9
$DIMZIN
 70
     0
  9
$DIMBLK
  1

  9
$DIMASO
 70
     1
  9
$DIMSHO
 70
     1
  9
$DIMPOST
  1

  9
$DIMAPOST
  1

  9
$DIMALT
 70
     0
  9
$DIMALTD
 70
     3
  9
$DIMALTF
 40
0.0393700787
  9
$DIMLFAC
 40
1.0
  9
$DIMTOFL
 70
     1
  9
$DIMTVP
 40
0.0
  9
$DIMTIX
 70
     0
  9
$DIMSOXD
 70
     0
  9
$DIMSAH
 70
     0
  9
$DIMBLK1
  1

  9
$DIMBLK2
  1

  9
$DIMSTYLE
  2
ISO-25
  9
$DIMCLRD
 70
     0
  9
$DIMCLRE
 70
     0
  9
$DIMCLRT
 70
     0
  9
$DIMTFAC
 40
1.0
  9
$DIMGAP
 40
1.524
  9
$DIMJUST
 70
     0
  9
$DIMSD1
 70
     0
  9
$DIMSD2
 70
     0
  9
$DIMTOLJ
 70
     0
  9
$DIMTZIN
 70
     0
  9
$DIMALTZ
 70
     0
  9
$DIMALTTZ
 70
     0
  9
$DIMUPT
 70
     0
  9
$DIMDEC
 70
     2
  9
$DIMTDEC
 70
     2
  9
$DIMALTU
 70
     2
  9
$DIMALTTD
 70
     3
  9
$DIMTXSTY
  7
Standard
  9
$DIMAUNIT
 70
     0
  9
$DIMADEC
 70
     2
  9
$DIMALTRND
 40
0.0
  9
$DIMAZIN
 70
     0
  9
$DIMDSEP
 70
    44
  9
$DIMATFIT
 70
     3
  9
$DIMFRAC
 70
     0
  9
$DIMLDRBLK
  1

  9
$DIMLUNIT
 70
     2
  9
$DIMLWD
 70
    -2
  9
$DIMLWE
 70
    -2
  9
$DIMTMOVE
 70
     0
  9
$LUNITS
 70
     2
  9
$LUPREC
 70
     2
  9
$SKETCHINC
 40
1.0
  9
$FILLETRAD
 40
10.0
  9
$AUNITS
 70
     0
  9
$AUPREC
 70
     2
  9
$MENU
  1
.
  9
$ELEVATION
 40
0.0
  9
$PELEVATION
 40
0.0
  9
$THICKNESS
 40
0.0
  9
$LIMCHECK
 70
     0
  9
$CHAMFERA
 40
10.0
  9
$CHAMFERB
 40
10.0
  9
$CHAMFERC
 40
20.0
  9
$CHAMFERD
 40
0.0
  9
$SKPOLY
 70
     0
  9
$TDCREATE
 40
2455735.6074486
  9
$TDUCREATE
 40
2455735.899115266
  9
$TDUPDATE
 40
2455735.607448611
  9
$TDUUPDATE
 40
2455735.899115278
  9
$TDINDWG
 40
0.0000000116
  9
$TDUSRTIMER
 40
0.0000000116
  9
$USRTIMER
 70
     1
  9
$ANGBASE
 50
0.0
  9
$ANGDIR
 70
     0
  9
$PDMODE
 70
     0
  9
$PDSIZE
 40
-1.0
  9
$PLINEWID
 40
0.0
  9
$SPLFRAME
 70
     0
  9
$SPLINETYPE
 70
     6
  9
$SPLINESEGS
 70
     8
  9
$HANDSEED
  5
4F6
  9
$SURFTAB1
 70
     6
  9
$SURFTAB2
 70
     6
  9
$SURFTYPE
 70
     6
  9
$SURFU
 70
     6
  9
$SURFV
 70
     6
  9
$UCSBASE
  2

  9
$UCSNAME
  2

  9
$UCSORG
 10
0.0
 20
0.0
 30
0.0
  9
$UCSXDIR
 10
1.0
 20
0.0
 30
0.0
  9
$UCSYDIR
 10
0.0
 20
1.0
 30
0.0
  9
$UCSORTHOREF
  2

  9
$UCSORTHOVIEW
 70
     0
  9
$UCSORGTOP
 10
0.0
 20
0.0
 30
0.0
  9
$UCSORGBOTTOM
 10
0.0
 20
0.0
 30
0.0
  9
$UCSORGLEFT
 10
0.0
 20
0.0
 30
0.0
  9
$UCSORGRIGHT
 10
0.0
 20
0.0
 30
0.0
  9
$UCSORGFRONT
 10
0.0
 20
0.0
 30
0.0
  9
$UCSORGBACK
 10
0.0
 20
0.0
 30
0.0
  9
$PUCSBASE
  2

  9
$PUCSNAME
  2

  9
$PUCSORG
 10
0.0
 20
0.0
 30
0.0
  9
$PUCSXDIR
 10
1.0
 20
0.0
 30
0.0
  9
$PUCSYDIR
 10
0.0
 20
1.0
 30
0.0
  9
$PUCSORTHOREF
  2

  9
$PUCSORTHOVIEW
 70
     0
  9
$PUCSORGTOP
 10
0.0
 20
0.0
 30
0.0
  9
$PUCSORGBOTTOM
 10
0.0
 20
0.0
 30
0.0
  9
$PUCSORGLEFT
 10
0.0
 20
0.0
 30
0.0
  9
$PUCSORGRIGHT
 10
0.0
 20
0.0
 30
0.0
  9
$PUCSORGFRONT
 10
0.0
 20
0.0
 30
0.0
  9
$PUCSORGBACK
 10
0.0
 20
0.0
 30
0.0
  9
$USERI1
 70
     0
  9
$USERI2
 70
     0
  9
$USERI3
 70
     0
  9
$USERI4
 70
     0
  9
$USERI5
 70
     0
  9
$USERR1
 40
0.0
  9
$USERR2
 40
0.0
  9
$USERR3
 40
0.0
  9
$USERR4
 40
0.0
  9
$USERR5
 40
0.0
  9
$WORLDVIEW
 70
     1
  9
$SHADEDGE
 70
     3
  9
$SHADEDIF
 70
    70
  9
$TILEMODE
 70
     1
  9
$MAXACTVP
 70
    64
  9
$PINSBASE
 10
0.0
 20
0.0
 30
0.0
  9
$PLIMCHECK
 70
     0
  9
$PEXTMIN
 10
1.0000000000E+20
 20
1.0000000000E+20
 30
1.0000000000E+20
  9
$PEXTMAX
 10
-1.0000000000E+20
 20
-1.0000000000E+20
 30
-1.0000000000E+20
  9
$PLIMMIN
 10
0.0
 20
0.0
  9
$PLIMMAX
 10
420.0
 20
297.0
  9
$UNITMODE
 70
     0
  9
$VISRETAIN
 70
     1
  9
$PLINEGEN
 70
     0
  9
$PSLTSCALE
 70
     1
  9
$TREEDEPTH
 70
  3020
  9
$CMLSTYLE
  2
Standard
  9
$CMLJUST
 70
     0
  9
$CMLSCALE
 40
20.0
  9
$PROXYGRAPHICS
 70
     1
  9
$MEASUREMENT
 70
     1
  9
$CELWEIGHT
370
    -1
  9
$ENDCAPS
280
     0
  9
$JOINSTYLE
280
     0
  9
$LWDISPLAY
290
     1
  9
$INSUNITS
 70
     4
  9
$HYPERLINKBASE
  1

  9
$STYLESHEET
  1

  9
$XEDIT
290
     1
  9
$CEPSNTYPE
380
     0
  9
$PSTYLEMODE
290
     1
  9
$FINGERPRINTGUID
  2
{2DD541EE-AD87-49FB-8D66-8316F20263A6}
  9
$VERSIONGUID
  2
{FAEB1C32-E019-11D5-929B-00C0DF256EC4}
  9
$EXTNAMES
290
     1
  9
$PSVPSCALE
 40
0.0
  9
$OLESTARTUP
290
     0
  0
ENDSEC
  0
SECTION
  2
CLASSES
  0
CLASS
  1
ACDBDICTIONARYWDFLT
  2
AcDbDictionaryWithDefault
  3
ObjectDBX Classes
 90
        0
280
     0
281
     0
  0
CLASS
  1
VISUALSTYLE
  2
AcDbVisualStyle
  3
ObjectDBX Classes
 90
     4095
280
     0
281
     0
  0
CLASS
  1
MATERIAL
  2
AcDbMaterial
  3
ObjectDBX Classes
 90
     1153
280
     0
281
     0
  0
CLASS
  1
DICTIONARYVAR
  2
AcDbDictionaryVar
  3
ObjectDBX Classes
 90
        0
280
     0
281
     0
  0
CLASS
  1
ACDBPLACEHOLDER
  2
AcDbPlaceHolder
  3
ObjectDBX Classes
 90
        0
280
     0
281
     0
  0
CLASS
  1
LAYOUT
  2
AcDbLayout
  3
ObjectDBX Classes
 90
        0
280
     0
281
     0
  0
ENDSEC
  0
SECTION
  2
TABLES
  0
TABLE
  2
VPORT
  5
8
330
0
100
AcDbSymbolTable
 70
     1
  0
VPORT
  5
29
330
8
100
AcDbSymbolTableRecord
100
AcDbViewportTableRecord
  2
*Active
 70
     0
 10
0.0
 20
0.0
 11
1.0
 21
1.0
 12
203.2
 22
152.4
 13
0.0
 23
0.0
 14
10.0
 24
10.0
 15
10.0
 25
10.0
 16
0.0
 26
0.0
 36
1.0
 17
0.0
 27
0.0
 37
0.0
 40
304.8
 41
1.3333333333
 42
50.0
 43
0.0
 44
0.0
 50
0.0
 51
0.0
 71
     0
 72
  2000
 73
     1
 74
     3
 75
     0
 76
     0
 77
     0
 78
     0
281
     0
 65
     1
110
0.0
120
0.0
130
0.0
111
1.0
121
0.0
131
0.0
112
0.0
122
1.0
132
0.0
 79
     0
146
0.0
  0
ENDTAB
  0
TABLE
  2
LTYPE
  5
5
330
0
100
AcDbSymbolTable
 70
     6
  0
LTYPE
  5
14
330
5
100
AcDbSymbolTableRecord
100
AcDbLinetypeTableRecord
  2
ByBlock
 70
     0
  3

 72
    65
 73
     0
 40
0.0
  0
LTYPE
  5
15
330
5
100
AcDbSymbolTableRecord
100
AcDbLinetypeTableRecord
  2
ByLayer
 70
     0
  3

 72
    65
 73
     0
 40
0.0
  0
LTYPE
  5
16
330
5
100
AcDbSymbolTableRecord
100
AcDbLinetypeTableRecord
  2
Continuous
 70
     0
  3
Solid line
 72
    65
 73
     0
 40
0.0
  0
LTYPE
  5
3F
330
5
100
AcDbSymbolTableRecord
100
AcDbLinetypeTableRecord
  2
HIDDEN
 70
     0
  3
Hidden __ __ __ __ __ __ __ __ __ __ __ __ __ __
 72
    65
 73
     2
 40
1.905
 49
1.27
 74
     0
 49
-0.635
 74
     0
  0
LTYPE
  5
40
330
5
100
AcDbSymbolTableRecord
100
AcDbLinetypeTableRecord
  2
PHANTOM
 70
     0
  3
Phantom ______  __  __  ______  __  __  ______
 72
    65
 73
     6
 40
12.7
 49
6.35
 74
     0
 49
-1.27
 74
     0
 49
1.27
 74
     0
 49
-1.27
 74
     0
 49
1.27
 74
     0
 49
-1.27
 74
     0
  0
LTYPE
  5
41
330
5
100
AcDbSymbolTableRecord
100
AcDbLinetypeTableRecord
  2
CENTER
 70
     0
  3
Center ____ _ ____ _ ____ _ ____ _ ____ _ ____
 72
    65
 73
     4
 40
10.16
 49
6.35
 74
     0
 49
-1.27
 74
     0
 49
1.27
 74
     0
 49
-1.27
 74
     0
  0
LTYPE
  5
42
330
5
100
AcDbSymbolTableRecord
100
AcDbLinetypeTableRecord
  2
CENTERX2
 70
     0
  3
Center (2x) ________  __  ________  __  _____
 72
    65
 73
     4
 40
20.32
 49
12.7
 74
     0
 49
-2.54
 74
     0
 49
2.54
 74
     0
 49
-2.54
 74
     0
  0
LTYPE
  5
43
330
5
100
AcDbSymbolTableRecord
100
AcDbLinetypeTableRecord
  2
DOT2
 70
     0
  3
Dot (.5x) ........................................
 72
    65
 73
     2
 40
0.635
 49
0.0
 74
     0
 49
-0.635
 74
     0
  0
ENDTAB
  0
TABLE
  2
LAYER
  5
2
330
0
100
AcDbSymbolTable
 70
     8
  0
LAYER
  5
10
330
2
100
AcDbSymbolTableRecord
100
AcDbLayerTableRecord
  2
0
 70
     0
 62
     7
  6
Continuous
370
    -3
390
F
  0
LAYER
  5
44
330
2
100
AcDbSymbolTableRecord
100
AcDbLayerTableRecord
  2
OUTLINES
 70
     0
 62
    18
  6
Continuous
370
    -3
390
F
  0
LAYER
  5
45
330
2
100
AcDbSymbolTableRecord
100
AcDbLayerTableRecord
  2
FLEXURES
 70
     0
 62
     1
  6
Continuous
370
    -3
390
F
  0
LAYER
  5
46
330
2
100
AcDbSymbolTableRecord
100
AcDbLayerTableRecord
  2
EXTENTS
 70
     0
 62
     5
  6
Continuous
370
    -3
390
F
  0
LAYER
  5
47
330
2
100
AcDbSymbolTableRecord
100
AcDbLayerTableRecord
  2
FLEXURES2
 70
     0
 62
    -1
  6
Continuous
370
    -3
390
F
  0
LAYER
  5
48
330
2
100
AcDbSymbolTableRecord
100
AcDbLayerTableRecord
  2
DIMS
 70
     0
 62
   -30
  6
Continuous
370
    -3
390
F
  0
LAYER
  5
49
330
2
100
AcDbSymbolTableRecord
100
AcDbLayerTableRecord
  2
ALIGNMENT
 70
     0
 62
     2
  6
Continuous
370
    -3
390
F
  0
LAYER
  5
4A
330
2
100
AcDbSymbolTableRecord
100
AcDbLayerTableRecord
  2
CONSTRUCTION
 70
     0
 62
    -4
  6
Continuous
370
    -3
390
F
  0
ENDTAB
  0
TABLE
  2
STYLE
  5
3
330
0
100
AcDbSymbolTable
 70
     1
  0
STYLE
  5
11
330
3
100
AcDbSymbolTableRecord
100
AcDbTextStyleTableRecord
  2
Standard
 70
     0
 40
0.0
 41
1.0
 50
0.0
 71
     0
 42
2.5
  3
txt
  4

  0
ENDTAB
  0
TABLE
  2
VIEW
  5
6
330
0
100
AcDbSymbolTable
 70
     0
  0
ENDTAB
  0
TABLE
  2
UCS
  5
7
330
0
100
AcDbSymbolTable
 70
     0
  0
ENDTAB
  0
TABLE
  2
APPID
  5
9
330
0
100
AcDbSymbolTable
 70
     1
  0
APPID
  5
12
330
9
100
AcDbSymbolTableRecord
100
AcDbRegAppTableRecord
  2
ACAD
 70
     0
  0
ENDTAB
  0
TABLE
  2
DIMSTYLE
  5
A
330
0
100
AcDbSymbolTable
 70
     1
100
AcDbDimStyleTable
  0
DIMSTYLE
105
27
330
A
100
AcDbSymbolTableRecord
100
AcDbDimStyleTableRecord
  2
ISO-25
 70
     0
 41
2.5
 42
0.625
 43
3.75
 44
1.25
 73
     0
 74
     0
 77
     1
 78
     8
140
2.5
141
2.5
143
0.0393700787
147
0.625
171
     3
172
     1
271
     2
272
     2
274
     3
278
    44
283
     0
284
     8
340
11
  0
ENDTAB
  0
TABLE
  2
BLOCK_RECORD
  5
1
330
0
100
AcDbSymbolTable
 70
     1
  0
BLOCK_RECORD
  5
1F
330
1
100
AcDbSymbolTableRecord
100
AcDbBlockTableRecord
  2
*Model_Space
340
22
  0
BLOCK_RECORD
  5
1B
330
1
100
AcDbSymbolTableRecord
100
AcDbBlockTableRecord
  2
*Paper_Space
340
1E
  0
BLOCK_RECORD
  5
23
330
1
100
AcDbSymbolTableRecord
100
AcDbBlockTableRecord
  2
*Paper_Space0
340
26
  0
ENDTAB
  0
ENDSEC
  0
SECTION
  2
BLOCKS
  0
BLOCK
  5
20
330
1F
100
AcDbEntity
  8
0
100
AcDbBlockBegin
  2
*Model_Space
 70
     0
 10
0.0
 20
0.0
 30
0.0
  3
*Model_Space
  1

  0
ENDBLK
  5
21
330
1F
100
AcDbEntity
  8
0
100
AcDbBlockEnd
  0
BLOCK
  5
1C
330
1B
100
AcDbEntity
 67
     1
  8
0
100
AcDbBlockBegin
  2
*Paper_Space
 70
     0
 10
0.0
 20
0.0
 30
0.0
  3
*Paper_Space
  1

  0
ENDBLK
  5
1D
330
1B
100
AcDbEntity
 67
     1
  8
0
100
AcDbBlockEnd
  0
BLOCK
  5
24
330
23
100
AcDbEntity
  8
0
100
AcDbBlockBegin
  2
*Paper_Space0
 70
     0
 10
0.0
 20
0.0
 30
0.0
  3
*Paper_Space0
  1

  0
ENDBLK
  5
25
330
23
100
AcDbEntity
  8
0
100
AcDbBlockEnd
  0
ENDSEC
  0
SECTION
  2
ENTITIES
  0
LINE
  5
4B
330
1F
100
AcDbEntity
  8
ALIGNMENT
100
AcDbLine
 10
9.9429925179
 20
300.005488347
 30
0.0
 11
13.228857758
 21
300.005488347
 31
0.0
  0
LINE
  5
4C
330
1F
100
AcDbEntity
  8
ALIGNMENT
100
AcDbLine
 10
13.228857758
 20
300.005488347
 30
0.0
 11
16.5147229981
 21
300.005488347
 31
0.0
  0
LINE
  5
4D
330
1F
100
AcDbEntity
  8
ALIGNMENT
100
AcDbLine
 10
13.228857758
 20
300.005488347
 30
0.0
 11
13.228857758
 21
303.2913535871
 31
0.0
  0
LINE
  5
4E
330
1F
100
AcDbEntity
  8
ALIGNMENT
100
AcDbLine
 10
13.228857758
 20
300.005488347
 30
0.0
 11
13.228857758
 21
296.7196231069
 31
0.0
  0
LINE
  5
4F
330
1F
100
AcDbEntity
  8
FLEXURES
100
AcDbLine
 10
9.9429925179
 20
300.005488347
 30
0.0
 11
16.5147229981
 21
300.005488347
 31
0.0
  0
LINE
  5
50
330
1F
100
AcDbEntity
  8
FLEXURES
100
AcDbLine
 10
13.228857758
 20
303.2913535871
 30
0.0
 11
13.228857758
 21
296.7196231069
 31
0.0
  0
LINE
  5
51
330
1F
100
AcDbEntity
  8
FLEXURES2
  6
Continuous
 62
     1
370
     0
100
AcDbLine
 10
31.6820404848
 20
271.7211475701
 30
0.0
 11
31.7890404848
 21
271.7211475701
 31
0.0
  0
LINE
  5
52
330
1F
100
AcDbEntity
  8
FLEXURES2
  6
Continuous
 62
     1
370
     0
100
AcDbLine
 10
23.0890404848
 20
271.9172088157
 30
0.0
 11
23.0890404848
 21
281.0959832604
 31
0.0
  0
LINE
  5
53
330
1F
100
AcDbEntity
  8
FLEXURES2
  6
Continuous
 62
     1
370
     0
100
AcDbLine
 10
22.6890404848
 20
281.0959832604
 30
0.0
 11
22.6890404848
 21
271.9172088157
 31
0.0
  0
LINE
  5
54
330
1F
100
AcDbEntity
  8
FLEXURES2
  6
Continuous
 62
     1
370
     0
100
AcDbLine
 10
23.0890404848
 20
271.9172088157
 30
0.0
 11
22.6890404848
 21
271.9172088157
 31
0.0
  0
LINE
  5
55
330
1F
100
AcDbEntity
  8
FLEXURES2
  6
Continuous
 62
     1
370
     0
100
AcDbLine
 10
28.5677437772
 20
280.4818994399
 30
0.0
 11
28.5677437772
 21
281.2818994399
 31
0.0
  0
LINE
  5
56
330
1F
100
AcDbEntity
  8
FLEXURES2
  6
Continuous
 62
     1
370
     0
100
AcDbLine
 10
19.3890404848
 20
281.5623327092
 30
0.0
 11
19.4960404848
 21
281.5623327092
 31
0.0
  0
LINE
  5
57
330
1F
100
AcDbEntity
  8
FLEXURES2
  6
Continuous
 62
     1
370
     0
100
AcDbLine
 10
7.8890404848
 20
271.7177278409
 30
0.0
 11
7.8890404848
 21
281.5581782989
 31
0.0
  0
LINE
  5
58
330
1F
100
AcDbEntity
  8
FLEXURES2
  6
Continuous
 62
     1
370
     0
100
AcDbLine
 10
7.7820404848
 20
281.5581782989
 30
0.0
 11
7.8890404848
 21
281.5581782989
 31
0.0
  0
LINE
  5
59
330
1F
100
AcDbEntity
  8
FLEXURES2
  6
Continuous
 62
     1
370
     0
100
AcDbLine
 10
31.6820404917
 20
281.5667735931
 30
0.0
 11
31.7890404848
 21
281.5668122472
 31
0.0
  0
LINE
  5
5A
330
1F
100
AcDbEntity
  8
FLEXURES2
  6
Continuous
 62
     1
370
     0
100
AcDbLine
 10
7.7820404848
 20
271.7177278409
 30
0.0
 11
7.8890404848
 21
271.7177278409
 31
0.0
  0
LINE
  5
5B
330
1F
100
AcDbEntity
  8
OUTLINES
100
AcDbLine
 10
24.3147229981
 20
296.4738719393
 30
0.0
 11
25.8147229981
 21
296.4738719393
 31
0.0
  0
LINE
  5
5C
330
1F
100
AcDbEntity
  8
OUTLINES
100
AcDbLine
 10
9.0147229981
 20
230.3738719393
 30
0.0
 11
10.3647229981
 21
230.3738719393
 31
0.0
  0
LINE
  5
5D
330
1F
100
AcDbEntity
  8
OUTLINES
100
AcDbLine
 10
9.0147229981
 20
254.0773719393
 30
0.0
 11
9.0147229981
 21
265.2703719393
 31
0.0
  0
LINE
  5
5E
330
1F
100
AcDbEntity
  8
OUTLINES
100
AcDbLine
 10
34.0261347523
 20
299.3039652368
 30
0.0
 11
32.6761347523
 21
299.3039652368
 31
0.0
  0
LINE
  5
5F
330
1F
100
AcDbEntity
  8
OUTLINES
100
AcDbLine
 10
34.0261347523
 20
275.6004652368
 30
0.0
 11
34.0261347523
 21
264.8074652368
 31
0.0
  0
LINE
  5
60
330
1F
100
AcDbEntity
  8
FLEXURES
 62
     1
100
AcDbLine
 10
34.9444988835
 20
297.2039652368
 30
0.0
 11
24.9387734485
 21
297.2039652368
 31
0.0
  0
LINE
  5
61
330
1F
100
AcDbEntity
  8
OUTLINES
  6
Continuous
370
     0
100
AcDbLine
 10
34.0261347523
 20
275.6004652368
 30
0.0
 11
34.6261347523
 21
275.6004652368
 31
0.0
  0
LINE
  5
62
330
1F
100
AcDbEntity
  8
FLEXURES
  6
Continuous
 62
     1
370
     0
100
AcDbLine
 10
25.4137742746
 20
239.9039652368
 30
0.0
 11
34.5914220368
 21
239.9039652368
 31
0.0
  0
LINE
  5
63
330
1F
100
AcDbEntity
  8
OUTLINES
100
AcDbLine
 10
32.6761347523
 20
300.1039652368
 30
0.0
 11
32.6761347523
 21
299.3039652368
 31
0.0
  0
LINE
  5
64
330
1F
100
AcDbEntity
  8
FLEXURES
 62
     1
100
AcDbLine
 10
34.5914220364
 20
272.5039652368
 30
0.0
 11
34.5914220364
 21
272.9039652368
 31
0.0
  0
LINE
  5
65
330
1F
100
AcDbEntity
  8
FLEXURES
  6
Continuous
 62
     1
370
     0
100
AcDbLine
 10
25.4137742746
 20
239.9039652368
 30
0.0
 11
25.4137742746
 21
239.5039652368
 31
0.0
  0
LINE
  5
66
330
1F
100
AcDbEntity
  8
CONSTRUCTION
100
AcDbLine
 10
24.9387734485
 20
243.1504652368
 30
0.0
 11
34.6261347523
 21
243.1504652368
 31
0.0
  0
LINE
  5
67
330
1F
100
AcDbEntity
  8
OUTLINES
100
AcDbLine
 10
26.0261347523
 20
264.8109652369
 30
0.0
 11
26.0261347523
 21
267.9039652398
 31
0.0
  0
LINE
  5
68
330
1F
100
AcDbEntity
  8
FLEXURES
  6
Continuous
 62
     1
370
     0
100
AcDbLine
 10
24.9387734485
 20
276.0969652368
 30
0.0
 11
34.8828136365
 21
276.0969652368
 31
0.0
  0
LINE
  5
69
330
1F
100
AcDbEntity
  8
OUTLINES
100
AcDbLine
 10
26.0261347523
 20
263.7109652369
 30
0.0
 11
25.4261347523
 21
263.7109652369
 31
0.0
  0
LINE
  5
6A
330
1F
100
AcDbEntity
  8
CONSTRUCTION
100
AcDbLine
 10
24.9387734485
 20
264.2574652368
 30
0.0
 11
34.6261347523
 21
264.2574652368
 31
0.0
  0
LINE
  5
6B
330
1F
100
AcDbEntity
  8
OUTLINES
  6
Continuous
370
     0
100
AcDbLine
 10
23.7261347523
 20
234.9039652368
 30
0.0
 11
23.7261347523
 21
234.0039652368
 31
0.0
  0
LINE
  5
6C
330
1F
100
AcDbEntity
  8
OUTLINES
100
AcDbLine
 10
34.0261347523
 20
296.7074652368
 30
0.0
 11
34.0261347523
 21
276.7004652368
 31
0.0
  0
LINE
  5
6D
330
1F
100
AcDbEntity
  8
OUTLINES
100
AcDbLine
 10
18.7261347523
 20
234.0039652368
 30
0.0
 11
17.2261347523
 21
234.0039652368
 31
0.0
  0
LINE
  5
6E
330
1F
100
AcDbEntity
  8
FLEXURES
  6
Continuous
 62
     1
370
     0
100
AcDbLine
 10
34.9450286071
 20
297.3109652368
 30
0.0
 11
34.9444988835
 21
297.2039652368
 31
0.0
  0
LINE
  5
6F
330
1F
100
AcDbEntity
  8
FLEXURES
  6
Continuous
 62
     1
370
     0
100
AcDbLine
 10
25.2261347523
 20
239.8637075342
 30
0.0
 11
25.2261347523
 21
234.7277603624
 31
0.0
  0
LINE
  5
70
330
1F
100
AcDbEntity
  8
OUTLINES
100
AcDbLine
 10
26.0261347523
 20
263.7109652369
 30
0.0
 11
26.0261347523
 21
243.7039652369
 31
0.0
  0
LINE
  5
71
330
1F
100
AcDbEntity
  8
FLEXURES
  6
Continuous
 62
     1
370
     0
100
AcDbLine
 10
24.9387734485
 20
264.3109652368
 30
0.0
 11
34.9310573247
 21
264.3109652368
 31
0.0
  0
LINE
  5
72
330
1F
100
AcDbEntity
  8
OUTLINES
100
AcDbLine
 10
32.6761347523
 20
300.1039652368
 30
0.0
 11
34.0261347523
 21
300.1039652368
 31
0.0
  0
LINE
  5
73
330
1F
100
AcDbEntity
  8
OUTLINES
100
AcDbLine
 10
25.4261347523
 20
243.7039652369
 30
0.0
 11
25.4261347523
 21
242.6039652369
 31
0.0
  0
LINE
  5
74
330
1F
100
AcDbEntity
  8
OUTLINES
  6
Continuous
370
     0
100
AcDbLine
 10
25.4261347523
 20
275.6004652368
 30
0.0
 11
25.4261347523
 21
276.7004652368
 31
0.0
  0
LINE
  5
75
330
1F
100
AcDbEntity
  8
OUTLINES
  6
Continuous
370
     0
100
AcDbLine
 10
34.0261347523
 20
297.8074652368
 30
0.0
 11
34.6261347523
 21
297.8074652368
 31
0.0
  0
LINE
  5
76
330
1F
100
AcDbEntity
  8
FLEXURES
 62
     1
100
AcDbLine
 10
34.9310573247
 20
264.2039652368
 30
0.0
 11
24.9387734485
 21
264.2039652368
 31
0.0
  0
LINE
  5
77
330
1F
100
AcDbEntity
  8
FLEXURES
  6
Continuous
 62
     1
370
     0
100
AcDbLine
 10
26.0261347523
 20
234.7277603624
 30
0.0
 11
25.2261347523
 21
234.7277603624
 31
0.0
  0
LINE
  5
78
330
1F
100
AcDbEntity
  8
OUTLINES
100
AcDbLine
 10
34.0261347523
 20
234.9039652368
 30
0.0
 11
34.0261347523
 21
242.6004652368
 31
0.0
  0
LINE
  5
79
330
1F
100
AcDbEntity
  8
FLEXURES
  6
Continuous
 62
     1
370
     0
100
AcDbLine
 10
34.5914220368
 20
239.9039652368
 30
0.0
 11
34.5914220368
 21
239.5039652368
 31
0.0
  0
LINE
  5
7A
330
1F
100
AcDbEntity
  8
OUTLINES
100
AcDbLine
 10
27.3761347523
 20
300.1039652368
 30
0.0
 11
27.3761347523
 21
299.3039652368
 31
0.0
  0
LINE
  5
7B
330
1F
100
AcDbEntity
  8
OUTLINES
100
AcDbLine
 10
26.0261347523
 20
296.7074652368
 30
0.0
 11
25.4261347523
 21
296.7074652368
 31
0.0
  0
LINE
  5
7C
330
1F
100
AcDbEntity
  8
FLEXURES
  6
Continuous
 62
     1
370
     0
100
AcDbLine
 10
25.4137742725
 20
267.5039652368
 30
0.0
 11
34.5914220348
 21
267.5039652368
 31
0.0
  0
LINE
  5
7D
330
1F
100
AcDbEntity
  8
FLEXURES
  6
Continuous
 62
     1
370
     0
100
AcDbLine
 10
34.8828136365
 20
276.2039652368
 30
0.0
 11
34.8828136365
 21
276.0969652368
 31
0.0
  0
LINE
  5
7E
330
1F
100
AcDbEntity
  8
OUTLINES
100
AcDbLine
 10
26.0261347523
 20
297.8074652368
 30
0.0
 11
26.0261347523
 21
299.3039652368
 31
0.0
  0
LINE
  5
7F
330
1F
100
AcDbEntity
  8
OUTLINES
100
AcDbLine
 10
17.2261347523
 20
234.0039652368
 30
0.0
 11
17.2261347523
 21
239.5039652368
 31
0.0
  0
LINE
  5
80
330
1F
100
AcDbEntity
  8
OUTLINES
  6
Continuous
370
     0
100
AcDbLine
 10
26.0261347523
 20
276.7004652368
 30
0.0
 11
25.4261347523
 21
276.7004652368
 31
0.0
  0
LINE
  5
81
330
1F
100
AcDbEntity
  8
FLEXURES
  6
Continuous
 62
     1
370
     0
100
AcDbLine
 10
25.4137742746
 20
239.5039652368
 30
0.0
 11
34.5914220368
 21
239.5039652368
 31
0.0
  0
LINE
  5
82
330
1F
100
AcDbEntity
  8
OUTLINES
  6
Continuous
370
     0
100
AcDbLine
 10
34.0261347523
 20
296.7074652368
 30
0.0
 11
34.6261347523
 21
296.7074652368
 31
0.0
  0
LINE
  5
83
330
1F
100
AcDbEntity
  8
OUTLINES
100
AcDbLine
 10
34.6261347523
 20
243.7004652368
 30
0.0
 11
34.6261347523
 21
242.6004652368
 31
0.0
  0
LINE
  5
84
330
1F
100
AcDbEntity
  8
FLEXURES
  6
Continuous
 62
     1
370
     0
100
AcDbLine
 10
34.5914220348
 20
267.9039652368
 30
0.0
 11
34.5914220348
 21
267.5039652368
 31
0.0
  0
LINE
  5
85
330
1F
100
AcDbEntity
  8
FLEXURES
  6
Continuous
 62
     1
370
     0
100
AcDbLine
 10
24.9387734485
 20
297.3109652368
 30
0.0
 11
24.9387734485
 21
297.2039652368
 31
0.0
  0
LINE
  5
86
330
1F
100
AcDbEntity
  8
FLEXURES
  6
Continuous
 62
     1
370
     0
100
AcDbLine
 10
24.9387734485
 20
276.2039652368
 30
0.0
 11
24.9387734485
 21
276.0969652368
 31
0.0
  0
LINE
  5
87
330
1F
100
AcDbEntity
  8
OUTLINES
  6
Continuous
370
     0
100
AcDbLine
 10
34.0261347523
 20
242.6004652368
 30
0.0
 11
34.6261347523
 21
242.6004652368
 31
0.0
  0
LINE
  5
88
330
1F
100
AcDbEntity
  8
OUTLINES
  6
Continuous
370
     0
100
AcDbLine
 10
26.0261347523
 20
297.8074652368
 30
0.0
 11
25.4261347523
 21
297.8074652368
 31
0.0
  0
LINE
  5
89
330
1F
100
AcDbEntity
  8
OUTLINES
100
AcDbLine
 10
27.3761347523
 20
299.3039652368
 30
0.0
 11
26.0261347523
 21
299.3039652368
 31
0.0
  0
LINE
  5
8A
330
1F
100
AcDbEntity
  8
OUTLINES
100
AcDbLine
 10
34.0261347523
 20
243.7004652368
 30
0.0
 11
34.6261347523
 21
243.7004652368
 31
0.0
  0
LINE
  5
8B
330
1F
100
AcDbEntity
  8
OUTLINES
100
AcDbLine
 10
34.0261347523
 20
263.7074652368
 30
0.0
 11
34.6261347523
 21
263.7074652368
 31
0.0
  0
LINE
  5
8C
330
1F
100
AcDbEntity
  8
CONSTRUCTION
100
AcDbLine
 10
24.9387734485
 20
276.1504652368
 30
0.0
 11
34.6261347523
 21
276.1504652368
 31
0.0
  0
LINE
  5
8D
330
1F
100
AcDbEntity
  8
FLEXURES
  6
Continuous
 62
     1
370
     0
100
AcDbLine
 10
24.9387734485
 20
264.3109652368
 30
0.0
 11
24.9387734485
 21
264.2039652368
 31
0.0
  0
LINE
  5
8E
330
1F
100
AcDbEntity
  8
OUTLINES
100
AcDbLine
 10
34.0261347523
 20
263.7074652368
 30
0.0
 11
34.0261347523
 21
243.7004652368
 31
0.0
  0
LINE
  5
8F
330
1F
100
AcDbEntity
  8
OUTLINES
100
AcDbLine
 10
26.0261347523
 20
239.5039652368
 30
0.0
 11
26.0261347523
 21
242.6039652369
 31
0.0
  0
LINE
  5
90
330
1F
100
AcDbEntity
  8
CONSTRUCTION
100
AcDbLine
 10
24.9387734485
 20
297.2574652368
 30
0.0
 11
34.6261347523
 21
297.2574652368
 31
0.0
  0
LINE
  5
91
330
1F
100
AcDbEntity
  8
FLEXURES
  6
Continuous
 62
     1
370
     0
100
AcDbLine
 10
24.9387734485
 20
297.3109652368
 30
0.0
 11
34.9450286071
 21
297.3109652368
 31
0.0
  0
LINE
  5
92
330
1F
100
AcDbEntity
  8
OUTLINES
100
AcDbLine
 10
34.0261347523
 20
301.0039652368
 30
0.0
 11
34.0261347523
 21
300.1039652368
 31
0.0
  0
LINE
  5
93
330
1F
100
AcDbEntity
  8
FLEXURES
  6
Continuous
 62
     1
370
     0
100
AcDbLine
 10
25.4137742712
 20
272.50396524
 30
0.0
 11
34.5914220364
 21
272.5039652368
 31
0.0
  0
LINE
  5
94
330
1F
100
AcDbEntity
  8
OUTLINES
100
AcDbLine
 10
9.0147229981
 20
242.9533845186
 30
0.0
 11
9.5147229981
 21
242.9533845186
 31
0.0
  0
LINE
  5
95
330
1F
100
AcDbEntity
  8
OUTLINES
100
AcDbLine
 10
26.0261347523
 20
301.0039652368
 30
0.0
 11
26.0261347523
 21
300.1039652368
 31
0.0
  0
LINE
  5
96
330
1F
100
AcDbEntity
  8
OUTLINES
100
AcDbLine
 10
34.6261347523
 20
297.8074652368
 30
0.0
 11
34.6261347523
 21
296.7074652368
 31
0.0
  0
LINE
  5
97
330
1F
100
AcDbEntity
  8
OUTLINES
100
AcDbLine
 10
25.2261347523
 20
234.9039652368
 30
0.0
 11
34.0261347523
 21
234.9039652368
 31
0.0
  0
LINE
  5
98
330
1F
100
AcDbEntity
  8
OUTLINES
100
AcDbLine
 10
9.0147229981
 20
276.3738719393
 30
0.0
 11
9.5147229981
 21
276.3738719393
 31
0.0
  0
LINE
  5
99
330
1F
100
AcDbEntity
  8
OUTLINES
100
AcDbLine
 10
17.2261347523
 20
239.5039652368
 30
0.0
 11
26.0261347523
 21
239.5039652368
 31
0.0
  0
LINE
  5
9A
330
1F
100
AcDbEntity
  8
FLEXURES
  6
Continuous
 62
     1
370
     0
100
AcDbLine
 10
34.9310573247
 20
264.3109652368
 30
0.0
 11
34.9310573247
 21
264.2039652368
 31
0.0
  0
LINE
  5
9B
330
1F
100
AcDbEntity
  8
OUTLINES
100
AcDbLine
 10
34.6261347523
 20
276.7004652368
 30
0.0
 11
34.6261347523
 21
275.6004652368
 31
0.0
  0
LINE
  5
9C
330
1F
100
AcDbEntity
  8
OUTLINES
100
AcDbLine
 10
26.0261347523
 20
272.5039652398
 30
0.0
 11
26.0261347523
 21
275.6004652368
 31
0.0
  0
LINE
  5
9D
330
1F
100
AcDbEntity
  8
OUTLINES
  6
Continuous
370
     0
100
AcDbLine
 10
34.6261347523
 20
263.7074652368
 30
0.0
 11
34.6261347523
 21
264.8074652368
 31
0.0
  0
LINE
  5
9E
330
1F
100
AcDbEntity
  8
FLEXURES
  6
Continuous
 62
     1
370
     0
100
AcDbLine
 10
25.4137742713
 20
272.9039652368
 30
0.0
 11
34.5914220364
 21
272.9039652368
 31
0.0
  0
LINE
  5
9F
330
1F
100
AcDbEntity
  8
OUTLINES
100
AcDbLine
 10
26.0261347523
 20
274.1039652368
 30
0.0
 11
26.5261347523
 21
274.1039652368
 31
0.0
  0
LINE
  5
A0
330
1F
100
AcDbEntity
  8
OUTLINES
100
AcDbLine
 10
34.0261347523
 20
299.3039652368
 30
0.0
 11
34.0261347523
 21
297.8074652368
 31
0.0
  0
LINE
  5
A1
330
1F
100
AcDbEntity
  8
OUTLINES
100
AcDbLine
 10
26.0261347523
 20
266.3039652368
 30
0.0
 11
26.5261347523
 21
266.3039652368
 31
0.0
  0
LINE
  5
A2
330
1F
100
AcDbEntity
  8
FLEXURES
 62
     1
100
AcDbLine
 10
34.8828136365
 20
276.2039652368
 30
0.0
 11
24.9387734485
 21
276.2039652368
 31
0.0
  0
LINE
  5
A3
330
1F
100
AcDbEntity
  8
OUTLINES
100
AcDbLine
 10
18.7261347523
 20
234.9039652368
 30
0.0
 11
23.7261347523
 21
234.9039652368
 31
0.0
  0
LINE
  5
A4
330
1F
100
AcDbEntity
  8
FLEXURES
  6
Continuous
 62
     1
370
     0
100
AcDbLine
 10
25.4137742725
 20
267.90396524
 30
0.0
 11
25.4137742725
 21
267.5039652368
 31
0.0
  0
LINE
  5
A5
330
1F
100
AcDbEntity
  8
FLEXURES
  6
Continuous
 62
     1
370
     0
100
AcDbLine
 10
24.9387734485
 20
243.2039652368
 30
0.0
 11
24.9387734485
 21
243.0969652368
 31
0.0
  0
LINE
  5
A6
330
1F
100
AcDbEntity
  8
OUTLINES
100
AcDbLine
 10
26.0261347523
 20
301.0039652368
 30
0.0
 11
34.0261347523
 21
301.0039652368
 31
0.0
  0
LINE
  5
A7
330
1F
100
AcDbEntity
  8
OUTLINES
100
AcDbLine
 10
34.0261347523
 20
274.1039652368
 30
0.0
 11
33.5261347523
 21
274.1039652368
 31
0.0
  0
LINE
  5
A8
330
1F
100
AcDbEntity
  8
OUTLINES
100
AcDbLine
 10
34.0261347523
 20
276.7004652368
 30
0.0
 11
34.6261347523
 21
276.7004652368
 31
0.0
  0
LINE
  5
A9
330
1F
100
AcDbEntity
  8
FLEXURES
  6
Continuous
 62
     1
370
     0
100
AcDbLine
 10
26.0261347523
 20
239.8637075342
 30
0.0
 11
26.0261347523
 21
234.7277603624
 31
0.0
  0
LINE
  5
AA
330
1F
100
AcDbEntity
  8
OUTLINES
  6
Continuous
370
     0
100
AcDbLine
 10
25.4261347523
 20
263.7109652369
 30
0.0
 11
25.4261347523
 21
264.8109652369
 31
0.0
  0
LINE
  5
AB
330
1F
100
AcDbEntity
  8
OUTLINES
  6
Continuous
370
     0
100
AcDbLine
 10
25.2261347523
 20
234.0039652368
 30
0.0
 11
25.2261347523
 21
234.9039652368
 31
0.0
  0
LINE
  5
AC
330
1F
100
AcDbEntity
  8
OUTLINES
100
AcDbLine
 10
26.0261347523
 20
242.6039652369
 30
0.0
 11
25.4261347523
 21
242.6039652369
 31
0.0
  0
LINE
  5
AD
330
1F
100
AcDbEntity
  8
FLEXURES
  6
Continuous
 62
     1
370
     0
100
AcDbLine
 10
25.4137742713
 20
272.9039652368
 30
0.0
 11
25.4137742712
 21
272.50396524
 31
0.0
  0
LINE
  5
AE
330
1F
100
AcDbEntity
  8
FLEXURES
  6
Continuous
 62
     1
370
     0
100
AcDbLine
 10
25.4137742725
 20
267.90396524
 30
0.0
 11
34.5914220348
 21
267.9039652368
 31
0.0
  0
LINE
  5
AF
330
1F
100
AcDbEntity
  8
OUTLINES
100
AcDbLine
 10
26.0261347523
 20
275.6004652368
 30
0.0
 11
25.4261347523
 21
275.6004652368
 31
0.0
  0
LINE
  5
B0
330
1F
100
AcDbEntity
  8
FLEXURES
  6
Continuous
 62
     1
370
     0
100
AcDbLine
 10
34.8691307491
 20
243.2039652368
 30
0.0
 11
34.8691307491
 21
243.0969652368
 31
0.0
  0
LINE
  5
B1
330
1F
100
AcDbEntity
  8
FLEXURES
  6
Continuous
 62
     1
370
     0
100
AcDbLine
 10
24.9387734485
 20
243.0969652368
 30
0.0
 11
34.8691307491
 21
243.0969652368
 31
0.0
  0
LINE
  5
B2
330
1F
100
AcDbEntity
  8
FLEXURES
 62
     1
100
AcDbLine
 10
34.8691307491
 20
243.2039652368
 30
0.0
 11
24.9387734485
 21
243.2039652368
 31
0.0
  0
LINE
  5
B3
330
1F
100
AcDbEntity
  8
OUTLINES
100
AcDbLine
 10
27.3761347523
 20
300.1039652368
 30
0.0
 11
26.0261347523
 21
300.1039652368
 31
0.0
  0
LINE
  5
B4
330
1F
100
AcDbEntity
  8
OUTLINES
  6
Continuous
370
     0
100
AcDbLine
 10
25.4261347523
 20
296.7074652368
 30
0.0
 11
25.4261347523
 21
297.8074652368
 31
0.0
  0
LINE
  5
B5
330
1F
100
AcDbEntity
  8
OUTLINES
  6
Continuous
370
     0
100
AcDbLine
 10
26.0261347523
 20
264.8109652369
 30
0.0
 11
25.4261347523
 21
264.8109652369
 31
0.0
  0
LINE
  5
B6
330
1F
100
AcDbEntity
  8
OUTLINES
  6
Continuous
370
     0
100
AcDbLine
 10
23.7261347523
 20
234.0039652368
 30
0.0
 11
25.2261347523
 21
234.0039652368
 31
0.0
  0
LINE
  5
B7
330
1F
100
AcDbEntity
  8
OUTLINES
  6
Continuous
370
     0
100
AcDbLine
 10
34.0261347523
 20
264.8074652368
 30
0.0
 11
34.6261347523
 21
264.8074652368
 31
0.0
  0
LINE
  5
B8
330
1F
100
AcDbEntity
  8
OUTLINES
  6
Continuous
370
     0
100
AcDbLine
 10
26.0261347523
 20
243.7039652369
 30
0.0
 11
25.4261347523
 21
243.7039652369
 31
0.0
  0
LINE
  5
B9
330
1F
100
AcDbEntity
  8
FLEXURES
  6
Continuous
 62
     1
370
     0
100
AcDbLine
 10
26.0261347523
 20
239.8637075342
 30
0.0
 11
25.2261347523
 21
239.8637075342
 31
0.0
  0
LINE
  5
BA
330
1F
100
AcDbEntity
  8
OUTLINES
100
AcDbLine
 10
18.7261347523
 20
234.9039652368
 30
0.0
 11
18.7261347523
 21
234.0039652368
 31
0.0
  0
LINE
  5
BB
330
1F
100
AcDbEntity
  8
OUTLINES
100
AcDbLine
 10
9.0147229981
 20
232.9703719393
 30
0.0
 11
9.0147229981
 21
252.9773719393
 31
0.0
  0
LINE
  5
BC
330
1F
100
AcDbEntity
  8
OUTLINES
100
AcDbLine
 10
9.0147229981
 20
266.3703719393
 30
0.0
 11
9.0147229981
 21
286.3773719393
 31
0.0
  0
LINE
  5
BD
330
1F
100
AcDbEntity
  8
OUTLINES
100
AcDbLine
 10
34.0261347523
 20
253.7039652368
 30
0.0
 11
33.5261347523
 21
253.7039652368
 31
0.0
  0
LINE
  5
BE
330
1F
100
AcDbEntity
  8
OUTLINES
100
AcDbLine
 10
26.0261347523
 20
296.7074652368
 30
0.0
 11
26.0261347523
 21
276.7004652368
 31
0.0
  0
LINE
  5
BF
330
1F
100
AcDbEntity
  8
OUTLINES
100
AcDbLine
 10
17.0147229981
 20
257.1738719393
 30
0.0
 11
25.8147229981
 21
257.1738719393
 31
0.0
  0
LINE
  5
C0
330
1F
100
AcDbEntity
  8
FLEXURES
 62
     1
100
AcDbLine
 10
17.0147229981
 20
256.7748697427
 30
0.0
 11
17.0147229981
 21
262.5771160928
 31
0.0
  0
LINE
  5
C1
330
1F
100
AcDbEntity
  8
FLEXURES
 62
     1
100
AcDbLine
 10
17.0147229981
 20
256.7748697427
 30
0.0
 11
17.8147229981
 21
256.7748697427
 31
0.0
  0
LINE
  5
C2
330
1F
100
AcDbEntity
  8
OUTLINES
100
AcDbLine
 10
17.0147229981
 20
232.9703719393
 30
0.0
 11
17.6147229981
 21
232.9703719393
 31
0.0
  0
LINE
  5
C3
330
1F
100
AcDbEntity
  8
OUTLINES
  6
Continuous
370
     0
100
AcDbLine
 10
17.0147229981
 20
252.9773719393
 30
0.0
 11
17.6147229981
 21
252.9773719393
 31
0.0
  0
LINE
  5
C4
330
1F
100
AcDbEntity
  8
OUTLINES
100
AcDbLine
 10
17.0147229981
 20
232.9703719393
 30
0.0
 11
17.0147229981
 21
252.9773719393
 31
0.0
  0
LINE
  5
C5
330
1F
100
AcDbEntity
  8
OUTLINES
  6
Continuous
370
     0
100
AcDbLine
 10
17.0147229981
 20
276.3738719393
 30
0.0
 11
16.5147229981
 21
276.3738719393
 31
0.0
  0
LINE
  5
C6
330
1F
100
AcDbEntity
  8
OUTLINES
  6
Continuous
370
     0
100
AcDbLine
 10
17.0147229981
 20
242.9738719393
 30
0.0
 11
16.5147229981
 21
242.9738719393
 31
0.0
  0
LINE
  5
C7
330
1F
100
AcDbEntity
  8
OUTLINES
100
AcDbLine
 10
17.2261347523
 20
272.5039652428
 30
0.0
 11
26.0261347523
 21
272.5039652398
 31
0.0
  0
LINE
  5
C8
330
1F
100
AcDbEntity
  8
OUTLINES
100
AcDbLine
 10
26.0261347523
 20
267.9039652398
 30
0.0
 11
17.2261347523
 21
267.9039652428
 31
0.0
  0
LINE
  5
C9
330
1F
100
AcDbEntity
  8
OUTLINES
100
AcDbLine
 10
17.2261347523
 20
267.9039652428
 30
0.0
 11
17.2261347523
 21
272.5039652428
 31
0.0
  0
LINE
  5
CA
330
1F
100
AcDbEntity
  8
FLEXURES
  6
Continuous
 62
     1
370
     0
100
AcDbLine
 10
26.0261347523
 20
272.8445337765
 30
0.0
 11
26.0261347523
 21
267.7085866047
 31
0.0
  0
LINE
  5
CB
330
1F
100
AcDbEntity
  8
FLEXURES
  6
Continuous
 62
     1
370
     0
100
AcDbLine
 10
26.0261347523
 20
272.8445337765
 30
0.0
 11
25.2261347523
 21
272.8445337765
 31
0.0
  0
LINE
  5
CC
330
1F
100
AcDbEntity
  8
FLEXURES
  6
Continuous
 62
     1
370
     0
100
AcDbLine
 10
25.2261347523
 20
272.8445337765
 30
0.0
 11
25.2261347523
 21
267.7085866047
 31
0.0
  0
LINE
  5
CD
330
1F
100
AcDbEntity
  8
FLEXURES
  6
Continuous
 62
     1
370
     0
100
AcDbLine
 10
26.0261347523
 20
267.7085866047
 30
0.0
 11
25.2261347523
 21
267.7085866047
 31
0.0
  0
LINE
  5
CE
330
1F
100
AcDbEntity
  8
FLEXURES
 62
     1
100
AcDbLine
 10
17.8147229981
 20
256.7748697427
 30
0.0
 11
17.8147229981
 21
262.5771160928
 31
0.0
  0
LINE
  5
CF
330
1F
100
AcDbEntity
  8
FLEXURES
 62
     1
100
AcDbLine
 10
17.0147229981
 20
262.5771160928
 30
0.0
 11
17.8147229981
 21
262.5771160928
 31
0.0
  0
LINE
  5
D0
330
1F
100
AcDbEntity
  8
OUTLINES
100
AcDbLine
 10
25.8147229981
 20
257.1738719393
 30
0.0
 11
25.8147229981
 21
262.1738719393
 31
0.0
  0
LINE
  5
D1
330
1F
100
AcDbEntity
  8
OUTLINES
100
AcDbLine
 10
25.8147229981
 20
262.1738719393
 30
0.0
 11
17.0147229981
 21
262.1738719393
 31
0.0
  0
LINE
  5
D2
330
1F
100
AcDbEntity
  8
OUTLINES
100
AcDbLine
 10
34.0261347523
 20
286.7039652368
 30
0.0
 11
33.5261347523
 21
286.7039652368
 31
0.0
  0
LINE
  5
D3
330
1F
100
AcDbEntity
  8
OUTLINES
  6
Continuous
370
     0
100
AcDbLine
 10
26.0261347523
 20
253.7074652369
 30
0.0
 11
26.5261347523
 21
253.7074652369
 31
0.0
  0
LINE
  5
D4
330
1F
100
AcDbEntity
  8
OUTLINES
  6
Continuous
370
     0
100
AcDbLine
 10
26.0261347523
 20
286.7039652368
 30
0.0
 11
26.5261347523
 21
286.7039652368
 31
0.0
  0
LINE
  5
D5
330
1F
100
AcDbEntity
  8
OUTLINES
100
AcDbLine
 10
10.3647229981
 20
229.5738719393
 30
0.0
 11
10.3647229981
 21
230.3738719393
 31
0.0
  0
LINE
  5
D6
330
1F
100
AcDbEntity
  8
OUTLINES
100
AcDbLine
 10
15.6647229981
 20
229.5738719393
 30
0.0
 11
15.6647229981
 21
230.3738719393
 31
0.0
  0
LINE
  5
D7
330
1F
100
AcDbEntity
  8
OUTLINES
100
AcDbLine
 10
15.6647229981
 20
230.3738719393
 30
0.0
 11
17.0147229981
 21
230.3738719393
 31
0.0
  0
LINE
  5
D8
330
1F
100
AcDbEntity
  8
FLEXURES
 62
     1
100
AcDbLine
 10
8.050528125
 20
232.4738719393
 30
0.0
 11
18.0939788265
 21
232.4738719393
 31
0.0
  0
LINE
  5
D9
330
1F
100
AcDbEntity
  8
OUTLINES
  6
Continuous
370
     0
100
AcDbLine
 10
9.0147229981
 20
254.0773719393
 30
0.0
 11
8.4147229981
 21
254.0773719393
 31
0.0
  0
LINE
  5
DA
330
1F
100
AcDbEntity
  8
FLEXURES
  6
Continuous
 62
     1
370
     0
100
AcDbLine
 10
17.9557684185
 20
290.1738719393
 30
0.0
 11
8.8183620224
 21
290.1738719393
 31
0.0
  0
LINE
  5
DB
330
1F
100
AcDbEntity
  8
FLEXURES
 62
     1
100
AcDbLine
 10
8.4386197565
 20
257.1738719393
 30
0.0
 11
8.4386197565
 21
256.7738719393
 31
0.0
  0
LINE
  5
DC
330
1F
100
AcDbEntity
  8
FLEXURES
  6
Continuous
 62
     1
370
     0
100
AcDbLine
 10
17.9557684185
 20
290.1738719393
 30
0.0
 11
17.9557684185
 21
290.5738719393
 31
0.0
  0
LINE
  5
DD
330
1F
100
AcDbEntity
  8
OUTLINES
100
AcDbLine
 10
8.4147229981
 20
266.3703719393
 30
0.0
 11
8.4147229981
 21
265.2703719393
 31
0.0
  0
LINE
  5
DE
330
1F
100
AcDbEntity
  8
OUTLINES
100
AcDbLine
 10
17.0147229981
 20
265.2703719393
 30
0.0
 11
17.0147229981
 21
262.1738719393
 31
0.0
  0
LINE
  5
DF
330
1F
100
AcDbEntity
  8
FLEXURES
  6
Continuous
 62
     1
370
     0
100
AcDbLine
 10
18.0959477946
 20
253.5808719393
 30
0.0
 11
7.9371231959
 21
253.5808719393
 31
0.0
  0
LINE
  5
E0
330
1F
100
AcDbEntity
  8
OUTLINES
100
AcDbLine
 10
17.0147229981
 20
266.3703719393
 30
0.0
 11
17.6147229981
 21
266.3703719393
 31
0.0
  0
LINE
  5
E1
330
1F
100
AcDbEntity
  8
OUTLINES
  6
Continuous
370
     0
100
AcDbLine
 10
8.4147229981
 20
254.0773719393
 30
0.0
 11
8.4147229981
 21
252.9773719393
 31
0.0
  0
LINE
  5
E2
330
1F
100
AcDbEntity
  8
OUTLINES
  6
Continuous
370
     0
100
AcDbLine
 10
19.3147229981
 20
295.5738719393
 30
0.0
 11
19.3147229981
 21
296.4738719393
 31
0.0
  0
LINE
  5
E3
330
1F
100
AcDbEntity
  8
FLEXURES
  6
Continuous
 62
     1
370
     0
100
AcDbLine
 10
8.050528125
 20
232.3668719393
 30
0.0
 11
8.050528125
 21
232.4738719393
 31
0.0
  0
LINE
  5
E4
330
1F
100
AcDbEntity
  8
FLEXURES
  6
Continuous
 62
     1
370
     0
100
AcDbLine
 10
17.8147229981
 20
290.4193665106
 30
0.0
 11
17.8147229981
 21
295.9553136824
 31
0.0
  0
LINE
  5
E5
330
1F
100
AcDbEntity
  8
CONSTRUCTION
100
AcDbLine
 10
8.0199971964
 20
286.9273719393
 30
0.0
 11
17.6147229981
 21
286.9273719393
 31
0.0
  0
LINE
  5
E6
330
1F
100
AcDbEntity
  8
FLEXURES
  6
Continuous
 62
     1
370
     0
100
AcDbLine
 10
18.0679925556
 20
265.7668719393
 30
0.0
 11
8.0513731012
 21
265.7668719393
 31
0.0
  0
LINE
  5
E7
330
1F
100
AcDbEntity
  8
OUTLINES
100
AcDbLine
 10
10.3647229981
 20
229.5738719393
 30
0.0
 11
9.0147229981
 21
229.5738719393
 31
0.0
  0
LINE
  5
E8
330
1F
100
AcDbEntity
  8
OUTLINES
100
AcDbLine
 10
17.6147229981
 20
286.3773719393
 30
0.0
 11
17.6147229981
 21
287.4773719393
 31
0.0
  0
LINE
  5
E9
330
1F
100
AcDbEntity
  8
OUTLINES
  6
Continuous
370
     0
100
AcDbLine
 10
17.6147229981
 20
254.0773719393
 30
0.0
 11
17.6147229981
 21
252.9773719393
 31
0.0
  0
LINE
  5
EA
330
1F
100
AcDbEntity
  8
OUTLINES
  6
Continuous
370
     0
100
AcDbLine
 10
9.0147229981
 20
231.8703719393
 30
0.0
 11
8.4147229981
 21
231.8703719393
 31
0.0
  0
LINE
  5
EB
330
1F
100
AcDbEntity
  8
FLEXURES
 62
     1
100
AcDbLine
 10
8.0513731012
 20
265.8738719393
 30
0.0
 11
18.0679925556
 21
265.8738719393
 31
0.0
  0
LINE
  5
EC
330
1F
100
AcDbEntity
  8
FLEXURES
  6
Continuous
 62
     1
370
     0
100
AcDbLine
 10
17.0147229981
 20
295.9553136824
 30
0.0
 11
17.8147229981
 21
295.9553136824
 31
0.0
  0
LINE
  5
ED
330
1F
100
AcDbEntity
  8
OUTLINES
100
AcDbLine
 10
9.0147229981
 20
295.5738719393
 30
0.0
 11
9.0147229981
 21
287.4773719393
 31
0.0
  0
LINE
  5
EE
330
1F
100
AcDbEntity
  8
FLEXURES
  6
Continuous
 62
     1
370
     0
100
AcDbLine
 10
8.8183620224
 20
290.1738719393
 30
0.0
 11
8.8183620224
 21
290.5738719393
 31
0.0
  0
LINE
  5
EF
330
1F
100
AcDbEntity
  8
FLEXURES
  6
Continuous
 62
     1
370
     0
100
AcDbLine
 10
17.593648751
 20
262.5738719393
 30
0.0
 11
8.3893276123
 21
262.5738719393
 31
0.0
  0
LINE
  5
F0
330
1F
100
AcDbEntity
  8
FLEXURES
  6
Continuous
 62
     1
370
     0
100
AcDbLine
 10
7.9371231959
 20
253.4738719393
 30
0.0
 11
7.9371231959
 21
253.5808719393
 31
0.0
  0
LINE
  5
F1
330
1F
100
AcDbEntity
  8
OUTLINES
100
AcDbLine
 10
17.0147229981
 20
231.8703719393
 30
0.0
 11
17.0147229981
 21
230.3738719393
 31
0.0
  0
LINE
  5
F2
330
1F
100
AcDbEntity
  8
OUTLINES
100
AcDbLine
 10
25.8147229981
 20
296.4738719393
 30
0.0
 11
25.8147229981
 21
290.5738719393
 31
0.0
  0
LINE
  5
F3
330
1F
100
AcDbEntity
  8
FLEXURES
  6
Continuous
 62
     1
370
     0
100
AcDbLine
 10
17.9557684185
 20
290.5738719393
 30
0.0
 11
8.8183620224
 21
290.5738719393
 31
0.0
  0
LINE
  5
F4
330
1F
100
AcDbEntity
  8
OUTLINES
  6
Continuous
370
     0
100
AcDbLine
 10
9.0147229981
 20
232.9703719393
 30
0.0
 11
8.4147229981
 21
232.9703719393
 31
0.0
  0
LINE
  5
F5
330
1F
100
AcDbEntity
  8
CONSTRUCTION
100
AcDbLine
 10
8.0513731012
 20
265.8203719393
 30
0.0
 11
17.6147229981
 21
265.8203719393
 31
0.0
  0
LINE
  5
F6
330
1F
100
AcDbEntity
  8
FLEXURES
  6
Continuous
 62
     1
370
     0
100
AcDbLine
 10
8.3893276123
 20
262.1738719393
 30
0.0
 11
8.3893276123
 21
262.5738719393
 31
0.0
  0
LINE
  5
F7
330
1F
100
AcDbEntity
  8
FLEXURES
  6
Continuous
 62
     1
370
     0
100
AcDbLine
 10
18.0939788265
 20
232.3668719393
 30
0.0
 11
18.0939788265
 21
232.4738719393
 31
0.0
  0
LINE
  5
F8
330
1F
100
AcDbEntity
  8
FLEXURES
  6
Continuous
 62
     1
370
     0
100
AcDbLine
 10
18.0959477946
 20
253.4738719393
 30
0.0
 11
18.0959477946
 21
253.5808719393
 31
0.0
  0
LINE
  5
F9
330
1F
100
AcDbEntity
  8
OUTLINES
  6
Continuous
370
     0
100
AcDbLine
 10
9.0147229981
 20
287.4773719393
 30
0.0
 11
8.4147229981
 21
287.4773719393
 31
0.0
  0
LINE
  5
FA
330
1F
100
AcDbEntity
  8
OUTLINES
  6
Continuous
370
     0
100
AcDbLine
 10
17.0147229981
 20
231.8703719393
 30
0.0
 11
17.6147229981
 21
231.8703719393
 31
0.0
  0
LINE
  5
FB
330
1F
100
AcDbEntity
  8
OUTLINES
100
AcDbLine
 10
9.0147229981
 20
286.3773719393
 30
0.0
 11
8.4147229981
 21
286.3773719393
 31
0.0
  0
LINE
  5
FC
330
1F
100
AcDbEntity
  8
OUTLINES
100
AcDbLine
 10
9.0147229981
 20
266.3703719393
 30
0.0
 11
8.4147229981
 21
266.3703719393
 31
0.0
  0
LINE
  5
FD
330
1F
100
AcDbEntity
  8
OUTLINES
100
AcDbLine
 10
17.0147229981
 20
266.3703719393
 30
0.0
 11
17.0147229981
 21
286.3773719393
 31
0.0
  0
LINE
  5
FE
330
1F
100
AcDbEntity
  8
FLEXURES
  6
Continuous
 62
     1
370
     0
100
AcDbLine
 10
18.0679925556
 20
265.7668719393
 30
0.0
 11
18.0679925556
 21
265.8738719393
 31
0.0
  0
LINE
  5
FF
330
1F
100
AcDbEntity
  8
CONSTRUCTION
100
AcDbLine
 10
7.9371231959
 20
253.5273719393
 30
0.0
 11
17.6147229981
 21
253.5273719393
 31
0.0
  0
LINE
  5
100
330
1F
100
AcDbEntity
  8
OUTLINES
100
AcDbLine
 10
17.0147229981
 20
287.4773719393
 30
0.0
 11
17.0147229981
 21
290.5738719393
 31
0.0
  0
LINE
  5
101
330
1F
100
AcDbEntity
  8
FLEXURES
  6
Continuous
 62
     1
370
     0
100
AcDbLine
 10
18.0939788265
 20
232.3668719393
 30
0.0
 11
8.050528125
 21
232.3668719393
 31
0.0
  0
LINE
  5
102
330
1F
100
AcDbEntity
  8
OUTLINES
100
AcDbLine
 10
9.0147229981
 20
228.6738719393
 30
0.0
 11
9.0147229981
 21
229.5738719393
 31
0.0
  0
LINE
  5
103
330
1F
100
AcDbEntity
  8
FLEXURES
  6
Continuous
 62
     1
370
     0
100
AcDbLine
 10
17.6575502004
 20
257.1738719393
 30
0.0
 11
8.4386197565
 21
257.1738719393
 31
0.0
  0
LINE
  5
104
330
1F
100
AcDbEntity
  8
OUTLINES
100
AcDbLine
 10
17.0147229981
 20
228.6738719393
 30
0.0
 11
17.0147229981
 21
229.5738719393
 31
0.0
  0
LINE
  5
105
330
1F
100
AcDbEntity
  8
OUTLINES
100
AcDbLine
 10
8.4147229981
 20
231.8703719393
 30
0.0
 11
8.4147229981
 21
232.9703719393
 31
0.0
  0
LINE
  5
106
330
1F
100
AcDbEntity
  8
OUTLINES
100
AcDbLine
 10
17.8147229981
 20
295.5738719393
 30
0.0
 11
9.0147229981
 21
295.5738719393
 31
0.0
  0
LINE
  5
107
330
1F
100
AcDbEntity
  8
OUTLINES
100
AcDbLine
 10
25.8147229981
 20
290.5738719393
 30
0.0
 11
17.0147229981
 21
290.5738719393
 31
0.0
  0
LINE
  5
108
330
1F
100
AcDbEntity
  8
FLEXURES
  6
Continuous
 62
     1
370
     0
100
AcDbLine
 10
8.0513731012
 20
265.7668719393
 30
0.0
 11
8.0513731012
 21
265.8738719393
 31
0.0
  0
LINE
  5
109
330
1F
100
AcDbEntity
  8
CONSTRUCTION
100
AcDbLine
 10
8.050528125
 20
232.4203719393
 30
0.0
 11
17.6147229981
 21
232.4203719393
 31
0.0
  0
LINE
  5
10A
330
1F
100
AcDbEntity
  8
OUTLINES
100
AcDbLine
 10
17.0147229981
 20
257.1738719393
 30
0.0
 11
17.0147229981
 21
254.0773719393
 31
0.0
  0
LINE
  5
10B
330
1F
100
AcDbEntity
  8
OUTLINES
100
AcDbLine
 10
34.0261347523
 20
266.3039652368
 30
0.0
 11
33.5261347523
 21
266.3039652368
 31
0.0
  0
LINE
  5
10C
330
1F
100
AcDbEntity
  8
FLEXURES
  6
Continuous
 62
     1
370
     0
100
AcDbLine
 10
17.6575502004
 20
256.7738719393
 30
0.0
 11
8.4386197565
 21
256.7738719393
 31
0.0
  0
LINE
  5
10D
330
1F
100
AcDbEntity
  8
OUTLINES
100
AcDbLine
 10
9.0147229981
 20
230.3738719393
 30
0.0
 11
9.0147229981
 21
231.8703719393
 31
0.0
  0
LINE
  5
10E
330
1F
100
AcDbEntity
  8
OUTLINES
100
AcDbLine
 10
8.4147229981
 20
287.4773719393
 30
0.0
 11
8.4147229981
 21
286.3773719393
 31
0.0
  0
LINE
  5
10F
330
1F
100
AcDbEntity
  8
FLEXURES
 62
     1
100
AcDbLine
 10
7.9371231959
 20
253.4738719393
 30
0.0
 11
18.0959477946
 21
253.4738719393
 31
0.0
  0
LINE
  5
110
330
1F
100
AcDbEntity
  8
OUTLINES
100
AcDbLine
 10
24.3147229981
 20
295.5738719393
 30
0.0
 11
19.3147229981
 21
295.5738719393
 31
0.0
  0
LINE
  5
111
330
1F
100
AcDbEntity
  8
FLEXURES
  6
Continuous
 62
     1
370
     0
100
AcDbLine
 10
17.593648751
 20
262.1738719393
 30
0.0
 11
17.593648751
 21
262.5738719393
 31
0.0
  0
LINE
  5
112
330
1F
100
AcDbEntity
  8
FLEXURES
  6
Continuous
 62
     1
370
     0
100
AcDbLine
 10
17.9476954721
 20
286.8738719393
 30
0.0
 11
17.9476954721
 21
286.9808719393
 31
0.0
  0
LINE
  5
113
330
1F
100
AcDbEntity
  8
OUTLINES
100
AcDbLine
 10
17.0147229981
 20
228.6738719393
 30
0.0
 11
9.0147229981
 21
228.6738719393
 31
0.0
  0
LINE
  5
114
330
1F
100
AcDbEntity
  8
OUTLINES
100
AcDbLine
 10
9.0147229981
 20
252.9773719393
 30
0.0
 11
8.4147229981
 21
252.9773719393
 31
0.0
  0
LINE
  5
115
330
1F
100
AcDbEntity
  8
FLEXURES
  6
Continuous
 62
     1
370
     0
100
AcDbLine
 10
17.0147229981
 20
290.4193665106
 30
0.0
 11
17.0147229981
 21
295.9553136824
 31
0.0
  0
LINE
  5
116
330
1F
100
AcDbEntity
  8
OUTLINES
  6
Continuous
370
     0
100
AcDbLine
 10
17.6147229981
 20
266.3703719393
 30
0.0
 11
17.6147229981
 21
265.2703719393
 31
0.0
  0
LINE
  5
117
330
1F
100
AcDbEntity
  8
OUTLINES
  6
Continuous
370
     0
100
AcDbLine
 10
17.8147229981
 20
296.4738719393
 30
0.0
 11
17.8147229981
 21
295.5738719393
 31
0.0
  0
LINE
  5
118
330
1F
100
AcDbEntity
  8
OUTLINES
100
AcDbLine
 10
17.0147229981
 20
287.4773719393
 30
0.0
 11
17.6147229981
 21
287.4773719393
 31
0.0
  0
LINE
  5
119
330
1F
100
AcDbEntity
  8
FLEXURES
  6
Continuous
 62
     1
370
     0
100
AcDbLine
 10
17.6575502004
 20
256.7738719393
 30
0.0
 11
17.6575502004
 21
257.1738719393
 31
0.0
  0
LINE
  5
11A
330
1F
100
AcDbEntity
  8
FLEXURES
  6
Continuous
 62
     1
370
     0
100
AcDbLine
 10
17.593648751
 20
262.1738719393
 30
0.0
 11
8.3893276123
 21
262.1738719393
 31
0.0
  0
LINE
  5
11B
330
1F
100
AcDbEntity
  8
OUTLINES
100
AcDbLine
 10
17.0147229981
 20
254.0773719393
 30
0.0
 11
17.6147229981
 21
254.0773719393
 31
0.0
  0
LINE
  5
11C
330
1F
100
AcDbEntity
  8
FLEXURES
  6
Continuous
 62
     1
370
     0
100
AcDbLine
 10
8.0199971964
 20
286.8738719393
 30
0.0
 11
8.0199971964
 21
286.9808719393
 31
0.0
  0
LINE
  5
11D
330
1F
100
AcDbEntity
  8
FLEXURES
  6
Continuous
 62
     1
370
     0
100
AcDbLine
 10
17.9476954721
 20
286.9808719393
 30
0.0
 11
8.0199971964
 21
286.9808719393
 31
0.0
  0
LINE
  5
11E
330
1F
100
AcDbEntity
  8
FLEXURES
 62
     1
100
AcDbLine
 10
8.0199971964
 20
286.8738719393
 30
0.0
 11
17.9476954721
 21
286.8738719393
 31
0.0
  0
LINE
  5
11F
330
1F
100
AcDbEntity
  8
OUTLINES
100
AcDbLine
 10
15.6647229981
 20
229.5738719393
 30
0.0
 11
17.0147229981
 21
229.5738719393
 31
0.0
  0
LINE
  5
120
330
1F
100
AcDbEntity
  8
OUTLINES
  6
Continuous
370
     0
100
AcDbLine
 10
17.6147229981
 20
232.9703719393
 30
0.0
 11
17.6147229981
 21
231.8703719393
 31
0.0
  0
LINE
  5
121
330
1F
100
AcDbEntity
  8
OUTLINES
  6
Continuous
370
     0
100
AcDbLine
 10
17.0147229981
 20
265.2703719393
 30
0.0
 11
17.6147229981
 21
265.2703719393
 31
0.0
  0
LINE
  5
122
330
1F
100
AcDbEntity
  8
OUTLINES
  6
Continuous
370
     0
100
AcDbLine
 10
19.3147229981
 20
296.4738719393
 30
0.0
 11
17.8147229981
 21
296.4738719393
 31
0.0
  0
LINE
  5
123
330
1F
100
AcDbEntity
  8
OUTLINES
  6
Continuous
370
     0
100
AcDbLine
 10
9.0147229981
 20
265.2703719393
 30
0.0
 11
8.4147229981
 21
265.2703719393
 31
0.0
  0
LINE
  5
124
330
1F
100
AcDbEntity
  8
OUTLINES
  6
Continuous
370
     0
100
AcDbLine
 10
17.0147229981
 20
286.3773719393
 30
0.0
 11
17.6147229981
 21
286.3773719393
 31
0.0
  0
LINE
  5
125
330
1F
100
AcDbEntity
  8
FLEXURES
  6
Continuous
 62
     1
370
     0
100
AcDbLine
 10
17.0147229981
 20
290.4193665106
 30
0.0
 11
17.8147229981
 21
290.4193665106
 31
0.0
  0
LINE
  5
126
330
1F
100
AcDbEntity
  8
OUTLINES
100
AcDbLine
 10
24.3147229981
 20
295.5738719393
 30
0.0
 11
24.3147229981
 21
296.4738719393
 31
0.0
  0
LINE
  5
127
330
1F
100
AcDbEntity
  8
OUTLINES
100
AcDbLine
 10
80.6549889698
 20
297.4330969814
 30
0.0
 11
80.6549889698
 21
296.9330969814
 31
0.0
  0
LINE
  5
128
330
1F
100
AcDbEntity
  8
OUTLINES
100
AcDbLine
 10
80.6549889698
 20
289.4330969814
 30
0.0
 11
80.6549889698
 21
289.9330969814
 31
0.0
  0
LINE
  5
129
330
1F
100
AcDbEntity
  8
OUTLINES
100
AcDbLine
 10
88.4549889698
 20
297.4330969814
 30
0.0
 11
88.4549889698
 21
296.9330969814
 31
0.0
  0
LINE
  5
12A
330
1F
100
AcDbEntity
  8
OUTLINES
100
AcDbLine
 10
88.4549889698
 20
289.4330969814
 30
0.0
 11
88.4549889698
 21
289.9330969814
 31
0.0
  0
LINE
  5
12B
330
1F
100
AcDbEntity
  8
OUTLINES
100
AcDbLine
 10
104.1549889698
 20
289.4330969814
 30
0.0
 11
104.1549889698
 21
289.9330969814
 31
0.0
  0
LINE
  5
12C
330
1F
100
AcDbEntity
  8
OUTLINES
100
AcDbLine
 10
90.8500095521
 20
280.4818994399
 30
0.0
 11
90.8500095521
 21
279.9818994399
 31
0.0
  0
LINE
  5
12D
330
1F
100
AcDbEntity
  8
OUTLINES
100
AcDbLine
 10
104.1549889698
 20
296.9330969814
 30
0.0
 11
104.1549889698
 21
297.4330969814
 31
0.0
  0
LINE
  5
12E
330
1F
100
AcDbEntity
  8
OUTLINES
100
AcDbLine
 10
90.8500095521
 20
272.4818994399
 30
0.0
 11
90.8500095521
 21
272.9818994399
 31
0.0
  0
LINE
  5
12F
330
1F
100
AcDbEntity
  8
OUTLINES
100
AcDbLine
 10
99.0500095521
 20
280.4818994399
 30
0.0
 11
99.0500095521
 21
279.9818994399
 31
0.0
  0
LINE
  5
130
330
1F
100
AcDbEntity
  8
OUTLINES
100
AcDbLine
 10
99.0500095521
 20
272.4818994399
 30
0.0
 11
99.0500095521
 21
272.9818994399
 31
0.0
  0
LINE
  5
131
330
1F
100
AcDbEntity
  8
OUTLINES
100
AcDbLine
 10
75.1500095521
 20
272.4818994399
 30
0.0
 11
75.1500095521
 21
272.9818994399
 31
0.0
  0
LINE
  5
132
330
1F
100
AcDbEntity
  8
OUTLINES
100
AcDbLine
 10
75.1500095521
 20
280.4818994399
 30
0.0
 11
75.1500095521
 21
279.9818994399
 31
0.0
  0
LINE
  5
133
330
1F
100
AcDbEntity
  8
OUTLINES
100
AcDbLine
 10
80.6549889698
 20
267.4330969858
 30
0.0
 11
80.6549889698
 21
266.9330969858
 31
0.0
  0
LINE
  5
134
330
1F
100
AcDbEntity
  8
OUTLINES
100
AcDbLine
 10
80.6549889698
 20
259.4330969858
 30
0.0
 11
80.6549889698
 21
259.9330969858
 31
0.0
  0
LINE
  5
135
330
1F
100
AcDbEntity
  8
OUTLINES
100
AcDbLine
 10
88.4549889698
 20
259.4330969858
 30
0.0
 11
88.4549889698
 21
259.9330969858
 31
0.0
  0
LINE
  5
136
330
1F
100
AcDbEntity
  8
OUTLINES
100
AcDbLine
 10
88.4549889698
 20
267.4330969858
 30
0.0
 11
88.4549889698
 21
266.9330969858
 31
0.0
  0
LINE
  5
137
330
1F
100
AcDbEntity
  8
OUTLINES
100
AcDbLine
 10
104.1549889698
 20
266.9330969858
 30
0.0
 11
104.1549889698
 21
267.4330969858
 31
0.0
  0
LINE
  5
138
330
1F
100
AcDbEntity
  8
OUTLINES
100
AcDbLine
 10
104.1549889698
 20
259.4330969858
 30
0.0
 11
104.1549889698
 21
259.9330969858
 31
0.0
  0
LINE
  5
139
330
1F
100
AcDbEntity
  8
OUTLINES
100
AcDbLine
 10
99.0500095521
 20
242.4818994443
 30
0.0
 11
99.0500095521
 21
242.9818994443
 31
0.0
  0
LINE
  5
13A
330
1F
100
AcDbEntity
  8
OUTLINES
100
AcDbLine
 10
99.0500095521
 20
250.4818994443
 30
0.0
 11
99.0500095521
 21
249.9818994443
 31
0.0
  0
LINE
  5
13B
330
1F
100
AcDbEntity
  8
OUTLINES
100
AcDbLine
 10
90.8500095521
 20
250.4818994443
 30
0.0
 11
90.8500095521
 21
249.9818994443
 31
0.0
  0
LINE
  5
13C
330
1F
100
AcDbEntity
  8
OUTLINES
100
AcDbLine
 10
90.8500095521
 20
242.4818994443
 30
0.0
 11
90.8500095521
 21
242.9818994443
 31
0.0
  0
LINE
  5
13D
330
1F
100
AcDbEntity
  8
OUTLINES
100
AcDbLine
 10
75.1500095521
 20
250.4818994443
 30
0.0
 11
75.1500095521
 21
249.9818994443
 31
0.0
  0
LINE
  5
13E
330
1F
100
AcDbEntity
  8
OUTLINES
100
AcDbLine
 10
75.1500095521
 20
242.4818994443
 30
0.0
 11
75.1500095521
 21
242.9818994443
 31
0.0
  0
LINE
  5
13F
330
1F
100
AcDbEntity
  8
OUTLINES
100
AcDbLine
 10
67.6500095521
 20
259.2818994443
 30
0.0
 11
73.5500095521
 21
259.2818994443
 31
0.0
  0
LINE
  5
140
330
1F
100
AcDbEntity
  8
FLEXURES
  6
Continuous
 62
     1
370
     0
100
AcDbLine
 10
73.9500095521
 20
241.91720882
 30
0.0
 11
73.5500095521
 21
241.91720882
 31
0.0
  0
LINE
  5
141
330
1F
100
AcDbEntity
  8
OUTLINES
100
AcDbLine
 10
73.5500095521
 20
250.4818994443
 30
0.0
 11
76.6465095521
 21
250.4818994443
 31
0.0
  0
LINE
  5
142
330
1F
100
AcDbEntity
  8
OUTLINES
100
AcDbLine
 10
67.6500095521
 20
257.7818994443
 30
0.0
 11
67.6500095521
 21
259.2818994443
 31
0.0
  0
LINE
  5
143
330
1F
100
AcDbEntity
  8
OUTLINES
  6
Continuous
370
     0
100
AcDbLine
 10
113.2535095521
 20
242.4818994443
 30
0.0
 11
113.2535095521
 21
241.8818994443
 31
0.0
  0
LINE
  5
144
330
1F
100
AcDbEntity
  8
OUTLINES
100
AcDbLine
 10
76.6465095521
 20
241.8818994443
 30
0.0
 11
77.7465095521
 21
241.8818994443
 31
0.0
  0
LINE
  5
145
330
1F
100
AcDbEntity
  8
FLEXURES
 62
     1
100
AcDbLine
 10
97.7735525777
 20
251.2818994443
 30
0.0
 11
91.9713062597
 21
251.2818994443
 31
0.0
  0
LINE
  5
146
330
1F
100
AcDbEntity
  8
OUTLINES
100
AcDbLine
 10
114.7500095521
 20
249.1318994443
 30
0.0
 11
114.7500095521
 21
250.4818994443
 31
0.0
  0
LINE
  5
147
330
1F
100
AcDbEntity
  8
OUTLINES
  6
Continuous
370
     0
100
AcDbLine
 10
111.2549889699
 20
257.1330969858
 30
0.0
 11
111.2549889699
 21
258.6330969858
 31
0.0
  0
LINE
  5
148
330
1F
100
AcDbEntity
  8
FLEXURES
 62
     1
100
AcDbLine
 10
78.5549889698
 20
268.1959348661
 30
0.0
 11
78.5549889698
 21
258.37046099
 31
0.0
  0
LINE
  5
149
330
1F
100
AcDbEntity
  8
FLEXURES
 62
     1
100
AcDbLine
 10
78.6619889698
 20
268.1959348661
 30
0.0
 11
78.6619889698
 21
258.37046099
 31
0.0
  0
LINE
  5
14A
330
1F
100
AcDbEntity
  8
FLEXURES
 62
     1
100
AcDbLine
 10
90.5549889698
 20
268.1959348661
 30
0.0
 11
90.5549889698
 21
258.3460983484
 31
0.0
  0
LINE
  5
14B
330
1F
100
AcDbEntity
  8
FLEXURES
  6
Continuous
 62
     1
370
     0
100
AcDbLine
 10
78.5549889698
 20
258.37046099
 30
0.0
 11
78.6619889698
 21
258.37046099
 31
0.0
  0
LINE
  5
14C
330
1F
100
AcDbEntity
  8
OUTLINES
100
AcDbLine
 10
111.2549889699
 20
252.1330969858
 30
0.0
 11
111.2549889699
 21
250.6330969858
 31
0.0
  0
LINE
  5
14D
330
1F
100
AcDbEntity
  8
FLEXURES
  6
Continuous
 62
     1
370
     0
100
AcDbLine
 10
105.395247066
 20
259.4330969858
 30
0.0
 11
105.395247066
 21
258.6330969858
 31
0.0
  0
LINE
  5
14E
330
1F
100
AcDbEntity
  8
OUTLINES
100
AcDbLine
 10
72.8049889698
 20
259.4330969858
 30
0.0
 11
72.8049889698
 21
259.9330969858
 31
0.0
  0
LINE
  5
14F
330
1F
100
AcDbEntity
  8
OUTLINES
100
AcDbLine
 10
66.4514889698
 20
268.0330969858
 30
0.0
 11
67.5514889698
 21
268.0330969858
 31
0.0
  0
LINE
  5
150
330
1F
100
AcDbEntity
  8
OUTLINES
100
AcDbLine
 10
78.0584889698
 20
267.4330969858
 30
0.0
 11
78.0584889698
 21
268.0330969858
 31
0.0
  0
LINE
  5
151
330
1F
100
AcDbEntity
  8
OUTLINES
100
AcDbLine
 10
67.5514889698
 20
259.4330969858
 30
0.0
 11
78.0584889698
 21
259.4330969858
 31
0.0
  0
LINE
  5
152
330
1F
100
AcDbEntity
  8
OUTLINES
100
AcDbLine
 10
68.5500095521
 20
242.4818994443
 30
0.0
 11
68.5500095521
 21
251.2818994443
 31
0.0
  0
LINE
  5
153
330
1F
100
AcDbEntity
  8
FLEXURES
 62
     1
100
AcDbLine
 10
101.1500095521
 20
241.7578490997
 30
0.0
 11
101.1500095521
 21
251.5623327136
 31
0.0
  0
LINE
  5
154
330
1F
100
AcDbEntity
  8
FLEXURES
 62
     1
100
AcDbLine
 10
77.2500095521
 20
241.7253742257
 30
0.0
 11
77.2500095521
 21
251.5710053159
 31
0.0
  0
LINE
  5
155
330
1F
100
AcDbEntity
  8
FLEXURES
 62
     1
100
AcDbLine
 10
73.9500095521
 20
241.91720882
 30
0.0
 11
73.9500095521
 21
251.0959832648
 31
0.0
  0
LINE
  5
156
330
1F
100
AcDbEntity
  8
FLEXURES
  6
Continuous
 62
     1
370
     0
100
AcDbLine
 10
73.8332950905
 20
251.2818994443
 30
0.0
 11
67.2973477033
 21
251.2818994443
 31
0.0
  0
LINE
  5
157
330
1F
100
AcDbEntity
  8
OUTLINES
100
AcDbLine
 10
113.2535095521
 20
241.8818994443
 30
0.0
 11
112.1535095521
 21
241.8818994443
 31
0.0
  0
LINE
  5
158
330
1F
100
AcDbEntity
  8
FLEXURES
 62
     1
100
AcDbLine
 10
97.7735525777
 20
250.4818994443
 30
0.0
 11
97.7735525777
 21
251.2818994443
 31
0.0
  0
LINE
  5
159
330
1F
100
AcDbEntity
  8
FLEXURES
 62
     1
100
AcDbLine
 10
82.2549889698
 20
267.9841150078
 30
0.0
 11
81.8549889698
 21
267.9841150078
 31
0.0
  0
LINE
  5
15A
330
1F
100
AcDbEntity
  8
OUTLINES
100
AcDbLine
 10
64.1549889697
 20
266.0830969858
 30
0.0
 11
64.9549889697
 21
266.0830969858
 31
0.0
  0
LINE
  5
15B
330
1F
100
AcDbEntity
  8
OUTLINES
  6
Continuous
370
     0
100
AcDbLine
 10
102.6584889698
 20
267.4330969858
 30
0.0
 11
102.6584889698
 21
268.0330969858
 31
0.0
  0
LINE
  5
15C
330
1F
100
AcDbEntity
  8
OUTLINES
100
AcDbLine
 10
96.3049889698
 20
267.4330969858
 30
0.0
 11
96.3049889698
 21
266.9330969858
 31
0.0
  0
LINE
  5
15D
330
1F
100
AcDbEntity
  8
OUTLINES
  6
Continuous
370
     0
100
AcDbLine
 10
96.3049889698
 20
259.4330969858
 30
0.0
 11
96.3049889698
 21
259.9330969858
 31
0.0
  0
LINE
  5
15E
330
1F
100
AcDbEntity
  8
FLEXURES
 62
     1
100
AcDbLine
 10
112.7570095521
 20
241.7177278453
 30
0.0
 11
112.7570095521
 21
251.5581783033
 31
0.0
  0
LINE
  5
15F
330
1F
100
AcDbEntity
  8
OUTLINES
100
AcDbLine
 10
113.2535095521
 20
250.4818994443
 30
0.0
 11
114.7500095521
 21
250.4818994443
 31
0.0
  0
LINE
  5
160
330
1F
100
AcDbEntity
  8
OUTLINES
100
AcDbLine
 10
77.7465095521
 20
251.0818994443
 30
0.0
 11
76.6465095521
 21
251.0818994443
 31
0.0
  0
LINE
  5
161
330
1F
100
AcDbEntity
  8
OUTLINES
  6
Continuous
370
     0
100
AcDbLine
 10
76.6465095521
 20
242.4818994443
 30
0.0
 11
76.6465095521
 21
241.8818994443
 31
0.0
  0
LINE
  5
162
330
1F
100
AcDbEntity
  8
OUTLINES
100
AcDbLine
 10
110.3549889699
 20
267.4330969858
 30
0.0
 11
110.3549889699
 21
258.6330969858
 31
0.0
  0
LINE
  5
163
330
1F
100
AcDbEntity
  8
OUTLINES
100
AcDbLine
 10
110.3549889699
 20
267.4330969858
 30
0.0
 11
102.6584889698
 21
267.4330969858
 31
0.0
  0
LINE
  5
164
330
1F
100
AcDbEntity
  8
FLEXURES
 62
     1
100
AcDbLine
 10
82.2549889698
 20
267.9841150078
 30
0.0
 11
82.2549889698
 21
258.805340563
 31
0.0
  0
LINE
  5
165
330
1F
100
AcDbEntity
  8
FLEXURES
  6
Continuous
 62
     1
370
     0
100
AcDbLine
 10
102.0549889698
 20
258.3379861156
 30
0.0
 11
102.1619889698
 21
258.3379861156
 31
0.0
  0
LINE
  5
166
330
1F
100
AcDbEntity
  8
FLEXURES
 62
     1
100
AcDbLine
 10
102.0549889698
 20
268.1959348662
 30
0.0
 11
102.0549889698
 21
258.3379861156
 31
0.0
  0
LINE
  5
167
330
1F
100
AcDbEntity
  8
FLEXURES
 62
     1
100
AcDbLine
 10
105.3549889698
 20
267.9841150078
 30
0.0
 11
105.3549889698
 21
258.8053405624
 31
0.0
  0
LINE
  5
168
330
1F
100
AcDbEntity
  8
OUTLINES
100
AcDbLine
 10
64.9549889697
 20
267.4330969858
 30
0.0
 11
66.4514889698
 21
267.4330969858
 31
0.0
  0
LINE
  5
169
330
1F
100
AcDbEntity
  8
FLEXURES
  6
Continuous
 62
     1
370
     0
100
AcDbLine
 10
105.395247066
 20
259.4330969858
 30
0.0
 11
110.5311942378
 21
259.4330969858
 31
0.0
  0
LINE
  5
16A
330
1F
100
AcDbEntity
  8
FLEXURES
  6
Continuous
 62
     1
370
     0
100
AcDbLine
 10
105.395247066
 20
258.6330969858
 30
0.0
 11
110.5311942378
 21
258.6330969858
 31
0.0
  0
LINE
  5
16B
330
1F
100
AcDbEntity
  8
OUTLINES
  6
Continuous
370
     0
100
AcDbLine
 10
89.9514889698
 20
267.4330969858
 30
0.0
 11
89.9514889698
 21
268.0330969858
 31
0.0
  0
LINE
  5
16C
330
1F
100
AcDbEntity
  8
OUTLINES
100
AcDbLine
 10
68.5500095521
 20
252.7818994443
 30
0.0
 11
68.5500095521
 21
257.7818994443
 31
0.0
  0
LINE
  5
16D
330
1F
100
AcDbEntity
  8
OUTLINES
100
AcDbLine
 10
77.7465095521
 20
242.4818994443
 30
0.0
 11
77.7465095521
 21
241.8818994443
 31
0.0
  0
LINE
  5
16E
330
1F
100
AcDbEntity
  8
FLEXURES
  6
Continuous
 62
     1
370
     0
100
AcDbLine
 10
97.8500095521
 20
251.0959832648
 30
0.0
 11
97.4500095521
 21
251.0959832648
 31
0.0
  0
LINE
  5
16F
330
1F
100
AcDbEntity
  8
FLEXURES
 62
     1
100
AcDbLine
 10
73.5500095521
 20
241.91720882
 30
0.0
 11
73.5500095521
 21
251.0959832648
 31
0.0
  0
LINE
  5
170
330
1F
100
AcDbEntity
  8
OUTLINES
100
AcDbLine
 10
68.5500095521
 20
257.7818994443
 30
0.0
 11
67.6500095521
 21
257.7818994443
 31
0.0
  0
LINE
  5
171
330
1F
100
AcDbEntity
  8
OUTLINES
100
AcDbLine
 10
115.5500095521
 20
249.1318994443
 30
0.0
 11
115.5500095521
 21
250.4818994443
 31
0.0
  0
LINE
  5
172
330
1F
100
AcDbEntity
  8
OUTLINES
100
AcDbLine
 10
89.3535095486
 20
250.4818994443
 30
0.0
 11
92.450009548
 21
250.4818994443
 31
0.0
  0
LINE
  5
173
330
1F
100
AcDbEntity
  8
OUTLINES
  6
Continuous
370
     0
100
AcDbLine
 10
100.5465095521
 20
241.8818994443
 30
0.0
 11
101.6465095521
 21
241.8818994443
 31
0.0
  0
LINE
  5
174
330
1F
100
AcDbEntity
  8
OUTLINES
  6
Continuous
370
     0
100
AcDbLine
 10
77.7465095521
 20
250.4818994443
 30
0.0
 11
77.7465095521
 21
251.0818994443
 31
0.0
  0
LINE
  5
175
330
1F
100
AcDbEntity
  8
FLEXURES
 62
     1
100
AcDbLine
 10
97.7735525777
 20
250.4818994443
 30
0.0
 11
91.9713062597
 21
250.4818994443
 31
0.0
  0
LINE
  5
176
330
1F
100
AcDbEntity
  8
OUTLINES
100
AcDbLine
 10
79.1584889698
 20
259.4330969858
 30
0.0
 11
82.2549889698
 21
259.4330969858
 31
0.0
  0
LINE
  5
177
330
1F
100
AcDbEntity
  8
FLEXURES
 62
     1
100
AcDbLine
 10
102.1619889698
 20
268.1959348662
 30
0.0
 11
102.1619889698
 21
258.3379861156
 31
0.0
  0
LINE
  5
178
330
1F
100
AcDbEntity
  8
FLEXURES
  6
Continuous
 62
     1
370
     0
100
AcDbLine
 10
66.9479889698
 20
258.3426786192
 30
0.0
 11
67.0549889698
 21
258.3426786192
 31
0.0
  0
LINE
  5
179
330
1F
100
AcDbEntity
  8
OUTLINES
  6
Continuous
370
     0
100
AcDbLine
 10
78.0584889698
 20
259.4330969858
 30
0.0
 11
78.0584889698
 21
258.8330969858
 31
0.0
  0
LINE
  5
17A
330
1F
100
AcDbEntity
  8
OUTLINES
  6
Continuous
370
     0
100
AcDbLine
 10
91.0514889698
 20
268.0330969858
 30
0.0
 11
89.9514889698
 21
268.0330969858
 31
0.0
  0
LINE
  5
17B
330
1F
100
AcDbEntity
  8
OUTLINES
  6
Continuous
370
     0
100
AcDbLine
 10
101.5584889698
 20
259.4330969858
 30
0.0
 11
101.5584889698
 21
258.8330969858
 31
0.0
  0
LINE
  5
17C
330
1F
100
AcDbEntity
  8
FLEXURES
  6
Continuous
 62
     1
370
     0
100
AcDbLine
 10
81.895247038
 20
259.4330969858
 30
0.0
 11
81.895247038
 21
258.6330969858
 31
0.0
  0
LINE
  5
17D
330
1F
100
AcDbEntity
  8
OUTLINES
  6
Continuous
370
     0
100
AcDbLine
 10
112.1535095521
 20
242.4818994443
 30
0.0
 11
112.1535095521
 21
241.8818994443
 31
0.0
  0
LINE
  5
17E
330
1F
100
AcDbEntity
  8
OUTLINES
  6
Continuous
370
     0
100
AcDbLine
 10
89.3535095486
 20
250.4818994443
 30
0.0
 11
89.3535095486
 21
251.0818994443
 31
0.0
  0
LINE
  5
17F
330
1F
100
AcDbEntity
  8
OUTLINES
  6
Continuous
370
     0
100
AcDbLine
 10
106.9000095521
 20
250.4818994443
 30
0.0
 11
106.9000095521
 21
249.9818994443
 31
0.0
  0
LINE
  5
180
330
1F
100
AcDbEntity
  8
FLEXURES
  6
Continuous
 62
     1
370
     0
100
AcDbLine
 10
78.5549889698
 20
268.1959348661
 30
0.0
 11
78.6619889698
 21
268.1959348661
 31
0.0
  0
LINE
  5
181
330
1F
100
AcDbEntity
  8
OUTLINES
100
AcDbLine
 10
91.0514889698
 20
259.4330969858
 30
0.0
 11
91.0514889698
 21
258.8330969858
 31
0.0
  0
LINE
  5
182
330
1F
100
AcDbEntity
  8
OUTLINES
  6
Continuous
370
     0
100
AcDbLine
 10
91.0514889698
 20
258.8330969858
 30
0.0
 11
89.9514889698
 21
258.8330969858
 31
0.0
  0
LINE
  5
183
330
1F
100
AcDbEntity
  8
OUTLINES
  6
Continuous
370
     0
100
AcDbLine
 10
67.6500095521
 20
251.2818994443
 30
0.0
 11
68.5500095521
 21
251.2818994443
 31
0.0
  0
LINE
  5
184
330
1F
100
AcDbEntity
  8
OUTLINES
100
AcDbLine
 10
97.4500095521
 20
259.2818994443
 30
0.0
 11
97.4500095521
 21
250.4818994443
 31
0.0
  0
LINE
  5
185
330
1F
100
AcDbEntity
  8
OUTLINES
100
AcDbLine
 10
88.2535095486
 20
250.4818994443
 30
0.0
 11
88.2535095486
 21
251.0818994443
 31
0.0
  0
LINE
  5
186
330
1F
100
AcDbEntity
  8
FLEXURES
 62
     1
100
AcDbLine
 10
67.0549889698
 20
268.1959348661
 30
0.0
 11
67.0549889698
 21
258.3426786192
 31
0.0
  0
LINE
  5
187
330
1F
100
AcDbEntity
  8
FLEXURES
  6
Continuous
 62
     1
370
     0
100
AcDbLine
 10
105.3549889698
 20
267.9841150078
 30
0.0
 11
105.7549889698
 21
267.9841150078
 31
0.0
  0
LINE
  5
188
330
1F
100
AcDbEntity
  8
OUTLINES
  6
Continuous
370
     0
100
AcDbLine
 10
67.6500095521
 20
252.7818994443
 30
0.0
 11
67.6500095521
 21
251.2818994443
 31
0.0
  0
LINE
  5
189
330
1F
100
AcDbEntity
  8
OUTLINES
100
AcDbLine
 10
88.2535095486
 20
242.4818994443
 30
0.0
 11
77.7465095521
 21
242.4818994443
 31
0.0
  0
LINE
  5
18A
330
1F
100
AcDbEntity
  8
FLEXURES
  6
Continuous
 62
     1
370
     0
100
AcDbLine
 10
101.1500095521
 20
241.7578490997
 30
0.0
 11
101.0430095521
 21
241.7578490997
 31
0.0
  0
LINE
  5
18B
330
1F
100
AcDbEntity
  8
OUTLINES
100
AcDbLine
 10
112.1535095521
 20
250.4818994443
 30
0.0
 11
101.6465095521
 21
250.4818994443
 31
0.0
  0
LINE
  5
18C
330
1F
100
AcDbEntity
  8
OUTLINES
100
AcDbLine
 10
97.4500095521
 20
259.2818994443
 30
0.0
 11
92.450009548
 21
259.2818994443
 31
0.0
  0
LINE
  5
18D
330
1F
100
AcDbEntity
  8
OUTLINES
100
AcDbLine
 10
114.7500095521
 20
242.4818994443
 30
0.0
 11
114.7500095521
 21
243.8318994443
 31
0.0
  0
LINE
  5
18E
330
1F
100
AcDbEntity
  8
FLEXURES
 62
     1
100
AcDbLine
 10
66.9479889698
 20
268.1959348661
 30
0.0
 11
66.9479889698
 21
258.3426786192
 31
0.0
  0
LINE
  5
18F
330
1F
100
AcDbEntity
  8
FLEXURES
  6
Continuous
 62
     1
370
     0
100
AcDbLine
 10
86.8549889698
 20
267.9841150078
 30
0.0
 11
87.2549889698
 21
267.9841150078
 31
0.0
  0
LINE
  5
190
330
1F
100
AcDbEntity
  8
OUTLINES
100
AcDbLine
 10
101.5584889698
 20
267.4330969858
 30
0.0
 11
101.5584889698
 21
268.0330969858
 31
0.0
  0
LINE
  5
191
330
1F
100
AcDbEntity
  8
OUTLINES
100
AcDbLine
 10
79.1584889698
 20
259.4330969858
 30
0.0
 11
79.1584889698
 21
258.8330969858
 31
0.0
  0
LINE
  5
192
330
1F
100
AcDbEntity
  8
OUTLINES
100
AcDbLine
 10
82.2549889698
 20
250.6330969858
 30
0.0
 11
82.2549889698
 21
259.4330969858
 31
0.0
  0
LINE
  5
193
330
1F
100
AcDbEntity
  8
FLEXURES
  6
Continuous
 62
     1
370
     0
100
AcDbLine
 10
87.0311942098
 20
259.4330969858
 30
0.0
 11
87.0311942098
 21
258.6330969858
 31
0.0
  0
LINE
  5
194
330
1F
100
AcDbEntity
  8
OUTLINES
100
AcDbLine
 10
116.4500095521
 20
242.4818994443
 30
0.0
 11
116.4500095521
 21
250.4818994443
 31
0.0
  0
LINE
  5
195
330
1F
100
AcDbEntity
  8
OUTLINES
100
AcDbLine
 10
97.4500095521
 20
250.4818994443
 30
0.0
 11
100.5465095521
 21
250.4818994443
 31
0.0
  0
LINE
  5
196
330
1F
100
AcDbEntity
  8
OUTLINES
100
AcDbLine
 10
112.1535095521
 20
251.0818994443
 30
0.0
 11
112.1535095521
 21
250.4818994443
 31
0.0
  0
LINE
  5
197
330
1F
100
AcDbEntity
  8
FLEXURES
 62
     1
100
AcDbLine
 10
88.8570095521
 20
241.7211475745
 30
0.0
 11
88.8570095451
 21
251.5667735975
 31
0.0
  0
LINE
  5
198
330
1F
100
AcDbEntity
  8
FLEXURES
  6
Continuous
 62
     1
370
     0
100
AcDbLine
 10
67.2973477033
 20
250.4818994443
 30
0.0
 11
67.2973477033
 21
251.2818994443
 31
0.0
  0
LINE
  5
199
330
1F
100
AcDbEntity
  8
OUTLINES
100
AcDbLine
 10
100.5465095521
 20
250.4818994443
 30
0.0
 11
100.5465095521
 21
251.0818994443
 31
0.0
  0
LINE
  5
19A
330
1F
100
AcDbEntity
  8
OUTLINES
100
AcDbLine
 10
105.7549889698
 20
250.6330969858
 30
0.0
 11
105.7549889698
 21
259.4330969858
 31
0.0
  0
LINE
  5
19B
330
1F
100
AcDbEntity
  8
FLEXURES
  6
Continuous
 62
     1
370
     0
100
AcDbLine
 10
81.8549889698
 20
258.805340563
 30
0.0
 11
82.2549889698
 21
258.805340563
 31
0.0
  0
LINE
  5
19C
330
1F
100
AcDbEntity
  8
OUTLINES
100
AcDbLine
 10
64.1549889697
 20
260.7830969858
 30
0.0
 11
64.9549889697
 21
260.7830969858
 31
0.0
  0
LINE
  5
19D
330
1F
100
AcDbEntity
  8
OUTLINES
100
AcDbLine
 10
67.5514889698
 20
259.4330969858
 30
0.0
 11
67.5514889698
 21
258.8330969858
 31
0.0
  0
LINE
  5
19E
330
1F
100
AcDbEntity
  8
FLEXURES
 62
     1
100
AcDbLine
 10
92.050009548
 20
241.9172088201
 30
0.0
 11
92.050009548
 21
251.0959832648
 31
0.0
  0
LINE
  5
19F
330
1F
100
AcDbEntity
  8
FLEXURES
  6
Continuous
 62
     1
370
     0
100
AcDbLine
 10
92.450009548
 20
241.9172088201
 30
0.0
 11
92.050009548
 21
241.9172088201
 31
0.0
  0
LINE
  5
1A0
330
1F
100
AcDbEntity
  8
FLEXURES
  6
Continuous
 62
     1
370
     0
100
AcDbLine
 10
92.450009548
 20
251.0959832648
 30
0.0
 11
92.050009548
 21
251.0959832648
 31
0.0
  0
LINE
  5
1A1
330
1F
100
AcDbEntity
  8
FLEXURES
 62
     1
100
AcDbLine
 10
77.1430095521
 20
241.7253742257
 30
0.0
 11
77.1430095521
 21
251.5710053159
 31
0.0
  0
LINE
  5
1A2
330
1F
100
AcDbEntity
  8
OUTLINES
  6
Continuous
370
     0
100
AcDbLine
 10
114.7500095521
 20
243.8318994443
 30
0.0
 11
115.5500095521
 21
243.8318994443
 31
0.0
  0
LINE
  5
1A3
330
1F
100
AcDbEntity
  8
FLEXURES
  6
Continuous
 62
     1
370
     0
100
AcDbLine
 10
90.4479889698
 20
258.3460983484
 30
0.0
 11
90.5549889698
 21
258.3460983484
 31
0.0
  0
LINE
  5
1A4
330
1F
100
AcDbEntity
  8
OUTLINES
100
AcDbLine
 10
66.4514889698
 20
259.4330969858
 30
0.0
 11
64.9549889697
 21
259.4330969858
 31
0.0
  0
LINE
  5
1A5
330
1F
100
AcDbEntity
  8
OUTLINES
  6
Continuous
370
     0
100
AcDbLine
 10
89.9514889698
 20
259.4330969858
 30
0.0
 11
89.9514889698
 21
258.8330969858
 31
0.0
  0
LINE
  5
1A6
330
1F
100
AcDbEntity
  8
OUTLINES
100
AcDbLine
 10
86.8549889698
 20
250.6330969858
 30
0.0
 11
82.2549889698
 21
250.6330969858
 31
0.0
  0
LINE
  5
1A7
330
1F
100
AcDbEntity
  8
FLEXURES
  6
Continuous
 62
     1
370
     0
100
AcDbLine
 10
81.895247038
 20
258.6330969858
 30
0.0
 11
87.0311942098
 21
258.6330969858
 31
0.0
  0
LINE
  5
1A8
330
1F
100
AcDbEntity
  8
FLEXURES
 62
     1
100
AcDbLine
 10
101.0430095521
 20
241.7578490997
 30
0.0
 11
101.0430095521
 21
251.5623327136
 31
0.0
  0
LINE
  5
1A9
330
1F
100
AcDbEntity
  8
FLEXURES
 62
     1
100
AcDbLine
 10
92.450009548
 20
251.0959832648
 30
0.0
 11
92.450009548
 21
241.9172088201
 31
0.0
  0
LINE
  5
1AA
330
1F
100
AcDbEntity
  8
OUTLINES
100
AcDbLine
 10
114.7500095521
 20
242.4818994443
 30
0.0
 11
113.2535095521
 21
242.4818994443
 31
0.0
  0
LINE
  5
1AB
330
1F
100
AcDbEntity
  8
OUTLINES
  6
Continuous
370
     0
100
AcDbLine
 10
100.5465095521
 20
242.4818994443
 30
0.0
 11
100.5465095521
 21
241.8818994443
 31
0.0
  0
LINE
  5
1AC
330
1F
100
AcDbEntity
  8
OUTLINES
  6
Continuous
370
     0
100
AcDbLine
 10
89.3535095486
 20
242.4818994443
 30
0.0
 11
89.3535095486
 21
241.8818994443
 31
0.0
  0
LINE
  5
1AD
330
1F
100
AcDbEntity
  8
OUTLINES
  6
Continuous
370
     0
100
AcDbLine
 10
88.2535095486
 20
241.8818994443
 30
0.0
 11
89.3535095486
 21
241.8818994443
 31
0.0
  0
LINE
  5
1AE
330
1F
100
AcDbEntity
  8
OUTLINES
  6
Continuous
370
     0
100
AcDbLine
 10
83.0000095503
 20
250.4818994443
 30
0.0
 11
83.0000095503
 21
249.9818994443
 31
0.0
  0
LINE
  5
1AF
330
1F
100
AcDbEntity
  8
OUTLINES
100
AcDbLine
 10
110.3549889699
 20
257.1330969858
 30
0.0
 11
110.3549889699
 21
252.1330969858
 31
0.0
  0
LINE
  5
1B0
330
1F
100
AcDbEntity
  8
OUTLINES
100
AcDbLine
 10
111.2549889699
 20
250.6330969858
 30
0.0
 11
105.7549889698
 21
250.6330969858
 31
0.0
  0
LINE
  5
1B1
330
1F
100
AcDbEntity
  8
OUTLINES
  6
Continuous
370
     0
100
AcDbLine
 10
110.3549889699
 20
257.1330969858
 30
0.0
 11
111.2549889699
 21
257.1330969858
 31
0.0
  0
LINE
  5
1B2
330
1F
100
AcDbEntity
  8
FLEXURES
 62
     1
100
AcDbLine
 10
87.2549889698
 20
267.9841150078
 30
0.0
 11
87.2549889698
 21
258.8053405631
 31
0.0
  0
LINE
  5
1B3
330
1F
100
AcDbEntity
  8
FLEXURES
  6
Continuous
 62
     1
370
     0
100
AcDbLine
 10
66.9479889698
 20
268.1959348661
 30
0.0
 11
67.0549889698
 21
268.1959348661
 31
0.0
  0
LINE
  5
1B4
330
1F
100
AcDbEntity
  8
OUTLINES
100
AcDbLine
 10
63.2549889697
 20
267.4330969858
 30
0.0
 11
64.1549889697
 21
267.4330969858
 31
0.0
  0
LINE
  5
1B5
330
1F
100
AcDbEntity
  8
OUTLINES
100
AcDbLine
 10
73.5500095521
 20
259.2818994443
 30
0.0
 11
73.5500095521
 21
250.4818994443
 31
0.0
  0
LINE
  5
1B6
330
1F
100
AcDbEntity
  8
FLEXURES
  6
Continuous
 62
     1
370
     0
100
AcDbLine
 10
77.2500095521
 20
241.7253742257
 30
0.0
 11
77.1430095521
 21
241.7253742257
 31
0.0
  0
LINE
  5
1B7
330
1F
100
AcDbEntity
  8
FLEXURES
 62
     1
100
AcDbLine
 10
88.7500095521
 20
241.7211475745
 30
0.0
 11
88.7500095521
 21
251.5668122516
 31
0.0
  0
LINE
  5
1B8
330
1F
100
AcDbEntity
  8
FLEXURES
  6
Continuous
 62
     1
370
     0
100
AcDbLine
 10
112.7570095521
 20
241.7177278453
 30
0.0
 11
112.6500095521
 21
241.7177278453
 31
0.0
  0
LINE
  5
1B9
330
1F
100
AcDbEntity
  8
OUTLINES
100
AcDbLine
 10
112.1535095521
 20
242.4818994443
 30
0.0
 11
101.6465095521
 21
242.4818994443
 31
0.0
  0
LINE
  5
1BA
330
1F
100
AcDbEntity
  8
OUTLINES
  6
Continuous
370
     0
100
AcDbLine
 10
111.2549889699
 20
258.6330969858
 30
0.0
 11
110.3549889699
 21
258.6330969858
 31
0.0
  0
LINE
  5
1BB
330
1F
100
AcDbEntity
  8
OUTLINES
100
AcDbLine
 10
105.7549889698
 20
259.4330969858
 30
0.0
 11
102.6584889698
 21
259.4330969858
 31
0.0
  0
LINE
  5
1BC
330
1F
100
AcDbEntity
  8
OUTLINES
100
AcDbLine
 10
89.3535095486
 20
242.4818994443
 30
0.0
 11
100.5465095521
 21
242.4818994443
 31
0.0
  0
LINE
  5
1BD
330
1F
100
AcDbEntity
  8
FLEXURES
  6
Continuous
 62
     1
370
     0
100
AcDbLine
 10
73.9500095521
 20
251.0959832648
 30
0.0
 11
73.5500095521
 21
251.0959832648
 31
0.0
  0
LINE
  5
1BE
330
1F
100
AcDbEntity
  8
OUTLINES
100
AcDbLine
 10
116.4500095521
 20
242.4818994443
 30
0.0
 11
115.5500095521
 21
242.4818994443
 31
0.0
  0
LINE
  5
1BF
330
1F
100
AcDbEntity
  8
OUTLINES
  6
Continuous
370
     0
100
AcDbLine
 10
88.2535095486
 20
251.0818994443
 30
0.0
 11
89.3535095486
 21
251.0818994443
 31
0.0
  0
LINE
  5
1C0
330
1F
100
AcDbEntity
  8
OUTLINES
100
AcDbLine
 10
101.6465095521
 20
242.4818994443
 30
0.0
 11
101.6465095521
 21
241.8818994443
 31
0.0
  0
LINE
  5
1C1
330
1F
100
AcDbEntity
  8
OUTLINES
100
AcDbLine
 10
92.450009548
 20
259.2818994443
 30
0.0
 11
92.450009548
 21
250.4818994443
 31
0.0
  0
LINE
  5
1C2
330
1F
100
AcDbEntity
  8
OUTLINES
100
AcDbLine
 10
67.5514889698
 20
267.4330969858
 30
0.0
 11
78.0584889698
 21
267.4330969858
 31
0.0
  0
LINE
  5
1C3
330
1F
100
AcDbEntity
  8
FLEXURES
  6
Continuous
 62
     1
370
     0
100
AcDbLine
 10
86.8549889698
 20
258.8053405631
 30
0.0
 11
87.2549889698
 21
258.8053405631
 31
0.0
  0
LINE
  5
1C4
330
1F
100
AcDbEntity
  8
OUTLINES
100
AcDbLine
 10
64.9549889697
 20
260.7830969858
 30
0.0
 11
64.9549889697
 21
259.4330969858
 31
0.0
  0
LINE
  5
1C5
330
1F
100
AcDbEntity
  8
OUTLINES
100
AcDbLine
 10
110.3549889699
 20
252.1330969858
 30
0.0
 11
111.2549889699
 21
252.1330969858
 31
0.0
  0
LINE
  5
1C6
330
1F
100
AcDbEntity
  8
OUTLINES
100
AcDbLine
 10
86.8549889698
 20
259.4330969858
 30
0.0
 11
89.9514889698
 21
259.4330969858
 31
0.0
  0
LINE
  5
1C7
330
1F
100
AcDbEntity
  8
OUTLINES
100
AcDbLine
 10
72.8049889698
 20
267.4330969858
 30
0.0
 11
72.8049889698
 21
266.9330969858
 31
0.0
  0
LINE
  5
1C8
330
1F
100
AcDbEntity
  8
FLEXURES
  6
Continuous
 62
     1
370
     0
100
AcDbLine
 10
88.8570095451
 20
251.5667735975
 30
0.0
 11
88.7500095521
 21
251.5668122516
 31
0.0
  0
LINE
  5
1C9
330
1F
100
AcDbEntity
  8
FLEXURES
  6
Continuous
 62
     1
370
     0
100
AcDbLine
 10
112.7570095521
 20
251.5581783033
 30
0.0
 11
112.6500095521
 21
251.5581783033
 31
0.0
  0
LINE
  5
1CA
330
1F
100
AcDbEntity
  8
OUTLINES
100
AcDbLine
 10
76.6465095521
 20
250.4818994443
 30
0.0
 11
76.6465095521
 21
251.0818994443
 31
0.0
  0
LINE
  5
1CB
330
1F
100
AcDbEntity
  8
OUTLINES
  6
Continuous
370
     0
100
AcDbLine
 10
113.2535095521
 20
250.4818994443
 30
0.0
 11
113.2535095521
 21
251.0818994443
 31
0.0
  0
LINE
  5
1CC
330
1F
100
AcDbEntity
  8
OUTLINES
  6
Continuous
370
     0
100
AcDbLine
 10
112.1535095521
 20
251.0818994443
 30
0.0
 11
113.2535095521
 21
251.0818994443
 31
0.0
  0
LINE
  5
1CD
330
1F
100
AcDbEntity
  8
OUTLINES
100
AcDbLine
 10
91.0514889698
 20
259.4330969858
 30
0.0
 11
101.5584889698
 21
259.4330969858
 31
0.0
  0
LINE
  5
1CE
330
1F
100
AcDbEntity
  8
FLEXURES
  6
Continuous
 62
     1
370
     0
100
AcDbLine
 10
102.0549889698
 20
268.1959348662
 30
0.0
 11
102.1619889698
 21
268.1959348662
 31
0.0
  0
LINE
  5
1CF
330
1F
100
AcDbEntity
  8
FLEXURES
  6
Continuous
 62
     1
370
     0
100
AcDbLine
 10
90.4479889698
 20
268.1959348661
 30
0.0
 11
90.5549889698
 21
268.1959348661
 31
0.0
  0
LINE
  5
1D0
330
1F
100
AcDbEntity
  8
OUTLINES
100
AcDbLine
 10
101.5584889698
 20
268.0330969858
 30
0.0
 11
102.6584889698
 21
268.0330969858
 31
0.0
  0
LINE
  5
1D1
330
1F
100
AcDbEntity
  8
OUTLINES
100
AcDbLine
 10
64.1549889697
 20
260.7830969858
 30
0.0
 11
64.1549889697
 21
259.4330969858
 31
0.0
  0
LINE
  5
1D2
330
1F
100
AcDbEntity
  8
OUTLINES
100
AcDbLine
 10
64.1549889697
 20
266.0830969858
 30
0.0
 11
64.1549889697
 21
267.4330969858
 31
0.0
  0
LINE
  5
1D3
330
1F
100
AcDbEntity
  8
OUTLINES
100
AcDbLine
 10
101.5584889698
 20
258.8330969858
 30
0.0
 11
102.6584889698
 21
258.8330969858
 31
0.0
  0
LINE
  5
1D4
330
1F
100
AcDbEntity
  8
OUTLINES
  6
Continuous
370
     0
100
AcDbLine
 10
79.1584889698
 20
258.8330969858
 30
0.0
 11
78.0584889698
 21
258.8330969858
 31
0.0
  0
LINE
  5
1D5
330
1F
100
AcDbEntity
  8
FLEXURES
 62
     1
100
AcDbLine
 10
112.6500095521
 20
241.7177278453
 30
0.0
 11
112.6500095521
 21
251.5581783033
 31
0.0
  0
LINE
  5
1D6
330
1F
100
AcDbEntity
  8
FLEXURES
  6
Continuous
 62
     1
370
     0
100
AcDbLine
 10
73.8332823457
 20
250.4818994443
 30
0.0
 11
67.2973477033
 21
250.4818994443
 31
0.0
  0
LINE
  5
1D7
330
1F
100
AcDbEntity
  8
OUTLINES
100
AcDbLine
 10
88.2535095486
 20
242.4818994443
 30
0.0
 11
88.2535095486
 21
241.8818994443
 31
0.0
  0
LINE
  5
1D8
330
1F
100
AcDbEntity
  8
FLEXURES
 62
     1
100
AcDbLine
 10
90.4479889698
 20
268.1959348661
 30
0.0
 11
90.4479889698
 21
258.3460983484
 31
0.0
  0
LINE
  5
1D9
330
1F
100
AcDbEntity
  8
OUTLINES
  6
Continuous
370
     0
100
AcDbLine
 10
67.5514889698
 20
258.8330969858
 30
0.0
 11
66.4514889698
 21
258.8330969858
 31
0.0
  0
LINE
  5
1DA
330
1F
100
AcDbEntity
  8
OUTLINES
100
AcDbLine
 10
78.0584889698
 20
268.0330969858
 30
0.0
 11
79.1584889698
 21
268.0330969858
 31
0.0
  0
LINE
  5
1DB
330
1F
100
AcDbEntity
  8
FLEXURES
  6
Continuous
 62
     1
370
     0
100
AcDbLine
 10
81.895247038
 20
259.4330969858
 30
0.0
 11
87.0311942098
 21
259.4330969858
 31
0.0
  0
LINE
  5
1DC
330
1F
100
AcDbEntity
  8
OUTLINES
100
AcDbLine
 10
68.5500095521
 20
242.4818994443
 30
0.0
 11
76.6465095521
 21
242.4818994443
 31
0.0
  0
LINE
  5
1DD
330
1F
100
AcDbEntity
  8
OUTLINES
  6
Continuous
370
     0
100
AcDbLine
 10
68.5500095521
 20
252.7818994443
 30
0.0
 11
67.6500095521
 21
252.7818994443
 31
0.0
  0
LINE
  5
1DE
330
1F
100
AcDbEntity
  8
FLEXURES
  6
Continuous
 62
     1
370
     0
100
AcDbLine
 10
101.1500095521
 20
251.5623327136
 30
0.0
 11
101.0430095521
 21
251.5623327136
 31
0.0
  0
LINE
  5
1DF
330
1F
100
AcDbEntity
  8
OUTLINES
100
AcDbLine
 10
115.5500095521
 20
243.8318994443
 30
0.0
 11
115.5500095521
 21
242.4818994443
 31
0.0
  0
LINE
  5
1E0
330
1F
100
AcDbEntity
  8
OUTLINES
100
AcDbLine
 10
101.6465095521
 20
250.4818994443
 30
0.0
 11
101.6465095521
 21
251.0818994443
 31
0.0
  0
LINE
  5
1E1
330
1F
100
AcDbEntity
  8
OUTLINES
100
AcDbLine
 10
106.9000095521
 20
242.4818994443
 30
0.0
 11
106.9000095521
 21
242.9818994443
 31
0.0
  0
LINE
  5
1E2
330
1F
100
AcDbEntity
  8
OUTLINES
100
AcDbLine
 10
63.2549889697
 20
259.4330969858
 30
0.0
 11
64.1549889697
 21
259.4330969858
 31
0.0
  0
LINE
  5
1E3
330
1F
100
AcDbEntity
  8
OUTLINES
100
AcDbLine
 10
9.0147229981
 20
263.7738719393
 30
0.0
 11
9.5147229981
 21
263.7738719393
 31
0.0
  0
LINE
  5
1E4
330
1F
100
AcDbEntity
  8
OUTLINES
100
AcDbLine
 10
17.0147229981
 20
263.7738719393
 30
0.0
 11
16.5147229981
 21
263.7738719393
 31
0.0
  0
LINE
  5
1E5
330
1F
100
AcDbEntity
  8
OUTLINES
100
AcDbLine
 10
9.0147229981
 20
255.5738719393
 30
0.0
 11
9.5147229981
 21
255.5738719393
 31
0.0
  0
LINE
  5
1E6
330
1F
100
AcDbEntity
  8
OUTLINES
100
AcDbLine
 10
17.0147229981
 20
255.5738719393
 30
0.0
 11
16.5147229981
 21
255.5738719393
 31
0.0
  0
LINE
  5
1E7
330
1F
100
AcDbEntity
  8
FLEXURES2
  6
Continuous
 62
     1
370
     0
100
AcDbLine
 10
31.7890404848
 20
271.7211475701
 30
0.0
 11
31.7890404848
 21
281.5668122472
 31
0.0
  0
LINE
  5
1E8
330
1F
100
AcDbEntity
  8
FLEXURES2
  6
Continuous
 62
     1
370
     0
100
AcDbLine
 10
28.0890404888
 20
281.0959832605
 30
0.0
 11
28.0890404888
 21
271.9172088157
 31
0.0
  0
LINE
  5
1E9
330
1F
100
AcDbEntity
  8
FLEXURES2
  6
Continuous
 62
     1
370
     0
100
AcDbLine
 10
19.4960404848
 20
271.7578490953
 30
0.0
 11
19.4960404848
 21
281.5623327092
 31
0.0
  0
LINE
  5
1EA
330
1F
100
AcDbEntity
  8
FLEXURES2
  6
Continuous
 62
     1
370
     0
100
AcDbLine
 10
28.0890404888
 20
281.0959832605
 30
0.0
 11
28.4890404888
 21
281.0959832605
 31
0.0
  0
LINE
  5
1EB
330
1F
100
AcDbEntity
  8
FLEXURES2
  6
Continuous
 62
     1
370
     0
100
AcDbLine
 10
28.0890404888
 20
271.9172088157
 30
0.0
 11
28.4890404888
 21
271.9172088157
 31
0.0
  0
LINE
  5
1EC
330
1F
100
AcDbEntity
  8
FLEXURES2
  6
Continuous
 62
     1
370
     0
100
AcDbLine
 10
28.4890404888
 20
271.9172088157
 30
0.0
 11
28.4890404888
 21
281.0959832605
 31
0.0
  0
LINE
  5
1ED
330
1F
100
AcDbEntity
  8
FLEXURES2
  6
Continuous
 62
     1
370
     0
100
AcDbLine
 10
31.6820404848
 20
271.7211475701
 30
0.0
 11
31.6820404917
 21
281.5667735931
 31
0.0
  0
LINE
  5
1EE
330
1F
100
AcDbEntity
  8
FLEXURES2
  6
Continuous
 62
     1
370
     0
100
AcDbLine
 10
19.3890404848
 20
271.7578490953
 30
0.0
 11
19.4960404848
 21
271.7578490953
 31
0.0
  0
LINE
  5
1EF
330
1F
100
AcDbEntity
  8
FLEXURES2
  6
Continuous
 62
     1
370
     0
100
AcDbLine
 10
22.7654974591
 20
280.4818994399
 30
0.0
 11
28.5677437772
 21
280.4818994399
 31
0.0
  0
LINE
  5
1F0
330
1F
100
AcDbEntity
  8
FLEXURES2
  6
Continuous
 62
     1
370
     0
100
AcDbLine
 10
22.6890404848
 20
281.0959832604
 30
0.0
 11
23.0890404848
 21
281.0959832604
 31
0.0
  0
LINE
  5
1F1
330
1F
100
AcDbEntity
  8
FLEXURES2
  6
Continuous
 62
     1
370
     0
100
AcDbLine
 10
7.7820404848
 20
271.7177278409
 30
0.0
 11
7.7820404848
 21
281.5581782989
 31
0.0
  0
LINE
  5
1F2
330
1F
100
AcDbEntity
  8
FLEXURES2
  6
Continuous
 62
     1
370
     0
100
AcDbLine
 10
22.7654974591
 20
280.4818994399
 30
0.0
 11
22.7654974591
 21
281.2818994399
 31
0.0
  0
LINE
  5
1F3
330
1F
100
AcDbEntity
  8
OUTLINES
100
AcDbLine
 10
67.6500095521
 20
289.2818994399
 30
0.0
 11
73.5500095521
 21
289.2818994399
 31
0.0
  0
LINE
  5
1F4
330
1F
100
AcDbEntity
  8
FLEXURES2
 62
     3
100
AcDbLine
 10
1.5982633595
 20
303.7070601896
 30
0.0
 11
118.9851616253
 21
303.7070601896
 31
0.0
  0
LINE
  5
1F5
330
1F
100
AcDbEntity
  8
FLEXURES2
 62
     3
100
AcDbLine
 10
1.5982633595
 20
303.7070601896
 30
0.0
 11
1.5982633595
 21
223.2122806596
 31
0.0
  0
LINE
  5
1F6
330
1F
100
AcDbEntity
  8
FLEXURES2
 62
     3
100
AcDbLine
 10
1.5982633595
 20
223.2122806596
 30
0.0
 11
118.9851616253
 21
223.2122806596
 31
0.0
  0
LINE
  5
1F7
330
1F
100
AcDbEntity
  8
FLEXURES2
 62
     3
100
AcDbLine
 10
118.9851616253
 20
303.7070601896
 30
0.0
 11
118.9851616253
 21
223.2122806596
 31
0.0
  0
LINE
  5
1F8
330
1F
100
AcDbEntity
  8
FLEXURES
  6
Continuous
 62
     1
370
     0
100
AcDbLine
 10
73.9500095521
 20
271.9172088156
 30
0.0
 11
73.5500095521
 21
271.9172088156
 31
0.0
  0
LINE
  5
1F9
330
1F
100
AcDbEntity
  8
OUTLINES
100
AcDbLine
 10
73.5500095521
 20
280.4818994399
 30
0.0
 11
76.6465095521
 21
280.4818994399
 31
0.0
  0
LINE
  5
1FA
330
1F
100
AcDbEntity
  8
OUTLINES
100
AcDbLine
 10
67.6500095521
 20
287.7818994399
 30
0.0
 11
67.6500095521
 21
289.2818994399
 31
0.0
  0
LINE
  5
1FB
330
1F
100
AcDbEntity
  8
OUTLINES
  6
Continuous
370
     0
100
AcDbLine
 10
113.2535095521
 20
272.4818994399
 30
0.0
 11
113.2535095521
 21
271.8818994399
 31
0.0
  0
LINE
  5
1FC
330
1F
100
AcDbEntity
  8
OUTLINES
100
AcDbLine
 10
76.6465095521
 20
271.8818994399
 30
0.0
 11
77.7465095521
 21
271.8818994399
 31
0.0
  0
LINE
  5
1FD
330
1F
100
AcDbEntity
  8
FLEXURES
 62
     1
100
AcDbLine
 10
97.7735525777
 20
281.2818994399
 30
0.0
 11
91.9713062597
 21
281.2818994399
 31
0.0
  0
LINE
  5
1FE
330
1F
100
AcDbEntity
  8
OUTLINES
100
AcDbLine
 10
114.7500095521
 20
279.1318994399
 30
0.0
 11
114.7500095521
 21
280.4818994399
 31
0.0
  0
LINE
  5
1FF
330
1F
100
AcDbEntity
  8
OUTLINES
  6
Continuous
370
     0
100
AcDbLine
 10
111.2549889699
 20
287.1330969814
 30
0.0
 11
111.2549889699
 21
288.6330969814
 31
0.0
  0
LINE
  5
200
330
1F
100
AcDbEntity
  8
FLEXURES
 62
     1
100
AcDbLine
 10
78.5549889698
 20
298.1959348618
 30
0.0
 11
78.5549889698
 21
288.3704609856
 31
0.0
  0
LINE
  5
201
330
1F
100
AcDbEntity
  8
FLEXURES
 62
     1
100
AcDbLine
 10
78.6619889698
 20
298.1959348618
 30
0.0
 11
78.6619889698
 21
288.3704609856
 31
0.0
  0
LINE
  5
202
330
1F
100
AcDbEntity
  8
FLEXURES
 62
     1
100
AcDbLine
 10
90.5549889698
 20
298.1959348618
 30
0.0
 11
90.5549889698
 21
288.346098344
 31
0.0
  0
LINE
  5
203
330
1F
100
AcDbEntity
  8
FLEXURES
  6
Continuous
 62
     1
370
     0
100
AcDbLine
 10
78.5549889698
 20
288.3704609856
 30
0.0
 11
78.6619889698
 21
288.3704609856
 31
0.0
  0
LINE
  5
204
330
1F
100
AcDbEntity
  8
OUTLINES
100
AcDbLine
 10
111.2549889699
 20
282.1330969814
 30
0.0
 11
111.2549889699
 21
280.6330969814
 31
0.0
  0
LINE
  5
205
330
1F
100
AcDbEntity
  8
FLEXURES
  6
Continuous
 62
     1
370
     0
100
AcDbLine
 10
105.395247066
 20
289.4330969814
 30
0.0
 11
105.395247066
 21
288.6330969814
 31
0.0
  0
LINE
  5
206
330
1F
100
AcDbEntity
  8
OUTLINES
100
AcDbLine
 10
72.8049889698
 20
289.4330969814
 30
0.0
 11
72.8049889698
 21
289.9330969814
 31
0.0
  0
LINE
  5
207
330
1F
100
AcDbEntity
  8
OUTLINES
100
AcDbLine
 10
66.4514889698
 20
298.0330969814
 30
0.0
 11
67.5514889698
 21
298.0330969814
 31
0.0
  0
LINE
  5
208
330
1F
100
AcDbEntity
  8
OUTLINES
100
AcDbLine
 10
78.0584889698
 20
297.4330969814
 30
0.0
 11
78.0584889698
 21
298.0330969814
 31
0.0
  0
LINE
  5
209
330
1F
100
AcDbEntity
  8
OUTLINES
100
AcDbLine
 10
67.5514889698
 20
289.4330969814
 30
0.0
 11
78.0584889698
 21
289.4330969814
 31
0.0
  0
LINE
  5
20A
330
1F
100
AcDbEntity
  8
OUTLINES
100
AcDbLine
 10
68.5500095521
 20
272.4818994399
 30
0.0
 11
68.5500095521
 21
281.2818994399
 31
0.0
  0
LINE
  5
20B
330
1F
100
AcDbEntity
  8
FLEXURES
 62
     1
100
AcDbLine
 10
101.1500095521
 20
271.7578490953
 30
0.0
 11
101.1500095521
 21
281.5623327092
 31
0.0
  0
LINE
  5
20C
330
1F
100
AcDbEntity
  8
FLEXURES
 62
     1
100
AcDbLine
 10
77.2500095521
 20
271.7253742213
 30
0.0
 11
77.2500095521
 21
281.5710053115
 31
0.0
  0
LINE
  5
20D
330
1F
100
AcDbEntity
  8
FLEXURES
 62
     1
100
AcDbLine
 10
73.9500095521
 20
271.9172088156
 30
0.0
 11
73.9500095521
 21
281.0959832604
 31
0.0
  0
LINE
  5
20E
330
1F
100
AcDbEntity
  8
FLEXURES
  6
Continuous
 62
     1
370
     0
100
AcDbLine
 10
73.8332950905
 20
281.2818994399
 30
0.0
 11
67.2973477033
 21
281.2818994399
 31
0.0
  0
LINE
  5
20F
330
1F
100
AcDbEntity
  8
OUTLINES
100
AcDbLine
 10
113.2535095521
 20
271.8818994399
 30
0.0
 11
112.1535095521
 21
271.8818994399
 31
0.0
  0
LINE
  5
210
330
1F
100
AcDbEntity
  8
FLEXURES
 62
     1
100
AcDbLine
 10
97.7735525777
 20
280.4818994399
 30
0.0
 11
97.7735525777
 21
281.2818994399
 31
0.0
  0
LINE
  5
211
330
1F
100
AcDbEntity
  8
FLEXURES
 62
     1
100
AcDbLine
 10
82.2549889698
 20
297.9841150034
 30
0.0
 11
81.8549889698
 21
297.9841150034
 31
0.0
  0
LINE
  5
212
330
1F
100
AcDbEntity
  8
OUTLINES
100
AcDbLine
 10
64.1549889697
 20
296.0830969814
 30
0.0
 11
64.9549889697
 21
296.0830969814
 31
0.0
  0
LINE
  5
213
330
1F
100
AcDbEntity
  8
OUTLINES
  6
Continuous
370
     0
100
AcDbLine
 10
102.6584889698
 20
297.4330969814
 30
0.0
 11
102.6584889698
 21
298.0330969814
 31
0.0
  0
LINE
  5
214
330
1F
100
AcDbEntity
  8
OUTLINES
100
AcDbLine
 10
96.3049889698
 20
297.4330969814
 30
0.0
 11
96.3049889698
 21
296.9330969814
 31
0.0
  0
LINE
  5
215
330
1F
100
AcDbEntity
  8
OUTLINES
  6
Continuous
370
     0
100
AcDbLine
 10
96.3049889698
 20
289.4330969814
 30
0.0
 11
96.3049889698
 21
289.9330969814
 31
0.0
  0
LINE
  5
216
330
1F
100
AcDbEntity
  8
FLEXURES
 62
     1
100
AcDbLine
 10
112.7570095521
 20
271.7177278409
 30
0.0
 11
112.7570095521
 21
281.5581782989
 31
0.0
  0
LINE
  5
217
330
1F
100
AcDbEntity
  8
OUTLINES
100
AcDbLine
 10
113.2535095521
 20
280.4818994399
 30
0.0
 11
114.7500095521
 21
280.4818994399
 31
0.0
  0
LINE
  5
218
330
1F
100
AcDbEntity
  8
OUTLINES
100
AcDbLine
 10
77.7465095521
 20
281.0818994399
 30
0.0
 11
76.6465095521
 21
281.0818994399
 31
0.0
  0
LINE
  5
219
330
1F
100
AcDbEntity
  8
OUTLINES
  6
Continuous
370
     0
100
AcDbLine
 10
76.6465095521
 20
272.4818994399
 30
0.0
 11
76.6465095521
 21
271.8818994399
 31
0.0
  0
LINE
  5
21A
330
1F
100
AcDbEntity
  8
OUTLINES
100
AcDbLine
 10
110.3549889699
 20
297.4330969814
 30
0.0
 11
110.3549889699
 21
288.6330969814
 31
0.0
  0
LINE
  5
21B
330
1F
100
AcDbEntity
  8
OUTLINES
100
AcDbLine
 10
110.3549889699
 20
297.4330969814
 30
0.0
 11
102.6584889698
 21
297.4330969814
 31
0.0
  0
LINE
  5
21C
330
1F
100
AcDbEntity
  8
FLEXURES
 62
     1
100
AcDbLine
 10
82.2549889698
 20
297.9841150034
 30
0.0
 11
82.2549889698
 21
288.8053405586
 31
0.0
  0
LINE
  5
21D
330
1F
100
AcDbEntity
  8
FLEXURES
  6
Continuous
 62
     1
370
     0
100
AcDbLine
 10
102.0549889698
 20
288.3379861113
 30
0.0
 11
102.1619889698
 21
288.3379861113
 31
0.0
  0
LINE
  5
21E
330
1F
100
AcDbEntity
  8
FLEXURES
 62
     1
100
AcDbLine
 10
102.0549889698
 20
298.1959348618
 30
0.0
 11
102.0549889698
 21
288.3379861113
 31
0.0
  0
LINE
  5
21F
330
1F
100
AcDbEntity
  8
FLEXURES
 62
     1
100
AcDbLine
 10
105.3549889698
 20
297.9841150034
 30
0.0
 11
105.3549889698
 21
288.805340558
 31
0.0
  0
LINE
  5
220
330
1F
100
AcDbEntity
  8
OUTLINES
100
AcDbLine
 10
64.9549889697
 20
297.4330969814
 30
0.0
 11
66.4514889698
 21
297.4330969814
 31
0.0
  0
LINE
  5
221
330
1F
100
AcDbEntity
  8
FLEXURES
  6
Continuous
 62
     1
370
     0
100
AcDbLine
 10
105.395247066
 20
289.4330969814
 30
0.0
 11
110.5311942378
 21
289.4330969814
 31
0.0
  0
LINE
  5
222
330
1F
100
AcDbEntity
  8
FLEXURES
  6
Continuous
 62
     1
370
     0
100
AcDbLine
 10
105.395247066
 20
288.6330969814
 30
0.0
 11
110.5311942378
 21
288.6330969814
 31
0.0
  0
LINE
  5
223
330
1F
100
AcDbEntity
  8
OUTLINES
  6
Continuous
370
     0
100
AcDbLine
 10
89.9514889698
 20
297.4330969814
 30
0.0
 11
89.9514889698
 21
298.0330969814
 31
0.0
  0
LINE
  5
224
330
1F
100
AcDbEntity
  8
CONSTRUCTION
100
AcDbLine
 10
78.6084889698
 20
298.1959348618
 30
0.0
 11
78.6084889698
 21
288.8330969814
 31
0.0
  0
LINE
  5
225
330
1F
100
AcDbEntity
  8
OUTLINES
100
AcDbLine
 10
68.5500095521
 20
282.7818994399
 30
0.0
 11
68.5500095521
 21
287.7818994399
 31
0.0
  0
LINE
  5
226
330
1F
100
AcDbEntity
  8
OUTLINES
100
AcDbLine
 10
77.7465095521
 20
272.4818994399
 30
0.0
 11
77.7465095521
 21
271.8818994399
 31
0.0
  0
LINE
  5
227
330
1F
100
AcDbEntity
  8
FLEXURES
  6
Continuous
 62
     1
370
     0
100
AcDbLine
 10
97.8500095521
 20
281.0959832604
 30
0.0
 11
97.4500095521
 21
281.0959832604
 31
0.0
  0
LINE
  5
228
330
1F
100
AcDbEntity
  8
FLEXURES
 62
     1
100
AcDbLine
 10
73.5500095521
 20
271.9172088156
 30
0.0
 11
73.5500095521
 21
281.0959832604
 31
0.0
  0
LINE
  5
229
330
1F
100
AcDbEntity
  8
OUTLINES
100
AcDbLine
 10
68.5500095521
 20
287.7818994399
 30
0.0
 11
67.6500095521
 21
287.7818994399
 31
0.0
  0
LINE
  5
22A
330
1F
100
AcDbEntity
  8
OUTLINES
100
AcDbLine
 10
115.5500095521
 20
279.1318994399
 30
0.0
 11
115.5500095521
 21
280.4818994399
 31
0.0
  0
LINE
  5
22B
330
1F
100
AcDbEntity
  8
EXTENTS
 62
     5
100
AcDbLine
 10
0.0
 20
222.563117334
 30
0.0
 11
119.3864525582
 21
222.563117334
 31
0.0
  0
LINE
  5
22C
330
1F
100
AcDbEntity
  8
EXTENTS
 62
     5
100
AcDbLine
 10
119.3864525582
 20
222.563117334
 30
0.0
 11
119.3864525582
 21
304.8
 31
0.0
  0
LINE
  5
22D
330
1F
100
AcDbEntity
  8
CONSTRUCTION
100
AcDbLine
 10
77.1965095521
 20
281.5710053115
 30
0.0
 11
77.1965095521
 21
271.8818994399
 31
0.0
  0
LINE
  5
22E
330
1F
100
AcDbEntity
  8
OUTLINES
100
AcDbLine
 10
89.3535095486
 20
280.4818994399
 30
0.0
 11
92.450009548
 21
280.4818994399
 31
0.0
  0
LINE
  5
22F
330
1F
100
AcDbEntity
  8
OUTLINES
  6
Continuous
370
     0
100
AcDbLine
 10
100.5465095521
 20
271.8818994399
 30
0.0
 11
101.6465095521
 21
271.8818994399
 31
0.0
  0
LINE
  5
230
330
1F
100
AcDbEntity
  8
OUTLINES
  6
Continuous
370
     0
100
AcDbLine
 10
77.7465095521
 20
280.4818994399
 30
0.0
 11
77.7465095521
 21
281.0818994399
 31
0.0
  0
LINE
  5
231
330
1F
100
AcDbEntity
  8
FLEXURES
 62
     1
100
AcDbLine
 10
97.7735525777
 20
280.4818994399
 30
0.0
 11
91.9713062597
 21
280.4818994399
 31
0.0
  0
LINE
  5
232
330
1F
100
AcDbEntity
  8
OUTLINES
100
AcDbLine
 10
79.1584889698
 20
289.4330969814
 30
0.0
 11
82.2549889698
 21
289.4330969814
 31
0.0
  0
LINE
  5
233
330
1F
100
AcDbEntity
  8
FLEXURES
 62
     1
100
AcDbLine
 10
102.1619889698
 20
298.1959348618
 30
0.0
 11
102.1619889698
 21
288.3379861113
 31
0.0
  0
LINE
  5
234
330
1F
100
AcDbEntity
  8
FLEXURES
  6
Continuous
 62
     1
370
     0
100
AcDbLine
 10
66.9479889698
 20
288.3426786148
 30
0.0
 11
67.0549889698
 21
288.3426786148
 31
0.0
  0
LINE
  5
235
330
1F
100
AcDbEntity
  8
OUTLINES
  6
Continuous
370
     0
100
AcDbLine
 10
78.0584889698
 20
289.4330969814
 30
0.0
 11
78.0584889698
 21
288.8330969814
 31
0.0
  0
LINE
  5
236
330
1F
100
AcDbEntity
  8
OUTLINES
  6
Continuous
370
     0
100
AcDbLine
 10
91.0514889698
 20
298.0330969814
 30
0.0
 11
89.9514889698
 21
298.0330969814
 31
0.0
  0
LINE
  5
237
330
1F
100
AcDbEntity
  8
OUTLINES
  6
Continuous
370
     0
100
AcDbLine
 10
101.5584889698
 20
289.4330969814
 30
0.0
 11
101.5584889698
 21
288.8330969814
 31
0.0
  0
LINE
  5
238
330
1F
100
AcDbEntity
  8
CONSTRUCTION
100
AcDbLine
 10
90.5014889698
 20
298.1959348618
 30
0.0
 11
90.5014889698
 21
288.8330969814
 31
0.0
  0
LINE
  5
239
330
1F
100
AcDbEntity
  8
FLEXURES
  6
Continuous
 62
     1
370
     0
100
AcDbLine
 10
81.895247038
 20
289.4330969814
 30
0.0
 11
81.895247038
 21
288.6330969814
 31
0.0
  0
LINE
  5
23A
330
1F
100
AcDbEntity
  8
OUTLINES
  6
Continuous
370
     0
100
AcDbLine
 10
112.1535095521
 20
272.4818994399
 30
0.0
 11
112.1535095521
 21
271.8818994399
 31
0.0
  0
LINE
  5
23B
330
1F
100
AcDbEntity
  8
OUTLINES
  6
Continuous
370
     0
100
AcDbLine
 10
89.3535095486
 20
280.4818994399
 30
0.0
 11
89.3535095486
 21
281.0818994399
 31
0.0
  0
LINE
  5
23C
330
1F
100
AcDbEntity
  8
OUTLINES
  6
Continuous
370
     0
100
AcDbLine
 10
106.9000095521
 20
280.4818994399
 30
0.0
 11
106.9000095521
 21
279.9818994399
 31
0.0
  0
LINE
  5
23D
330
1F
100
AcDbEntity
  8
FLEXURES
  6
Continuous
 62
     1
370
     0
100
AcDbLine
 10
78.5549889698
 20
298.1959348618
 30
0.0
 11
78.6619889698
 21
298.1959348618
 31
0.0
  0
LINE
  5
23E
330
1F
100
AcDbEntity
  8
OUTLINES
100
AcDbLine
 10
91.0514889698
 20
289.4330969814
 30
0.0
 11
91.0514889698
 21
288.8330969814
 31
0.0
  0
LINE
  5
23F
330
1F
100
AcDbEntity
  8
OUTLINES
  6
Continuous
370
     0
100
AcDbLine
 10
91.0514889698
 20
288.8330969814
 30
0.0
 11
89.9514889698
 21
288.8330969814
 31
0.0
  0
LINE
  5
240
330
1F
100
AcDbEntity
  8
OUTLINES
  6
Continuous
370
     0
100
AcDbLine
 10
67.6500095521
 20
281.2818994399
 30
0.0
 11
68.5500095521
 21
281.2818994399
 31
0.0
  0
LINE
  5
241
330
1F
100
AcDbEntity
  8
OUTLINES
100
AcDbLine
 10
97.4500095521
 20
289.2818994399
 30
0.0
 11
97.4500095521
 21
280.4818994399
 31
0.0
  0
LINE
  5
242
330
1F
100
AcDbEntity
  8
CONSTRUCTION
100
AcDbLine
 10
88.8035095486
 20
281.5667929201
 30
0.0
 11
88.8035095486
 21
271.8818994399
 31
0.0
  0
LINE
  5
243
330
1F
100
AcDbEntity
  8
OUTLINES
100
AcDbLine
 10
88.2535095486
 20
280.4818994399
 30
0.0
 11
88.2535095486
 21
281.0818994399
 31
0.0
  0
LINE
  5
244
330
1F
100
AcDbEntity
  8
CONSTRUCTION
100
AcDbLine
 10
101.0965095521
 20
281.5623327092
 30
0.0
 11
101.0965095521
 21
271.8818994399
 31
0.0
  0
LINE
  5
245
330
1F
100
AcDbEntity
  8
FLEXURES
 62
     1
100
AcDbLine
 10
67.0549889698
 20
298.1959348618
 30
0.0
 11
67.0549889698
 21
288.3426786148
 31
0.0
  0
LINE
  5
246
330
1F
100
AcDbEntity
  8
FLEXURES
  6
Continuous
 62
     1
370
     0
100
AcDbLine
 10
105.3549889698
 20
297.9841150034
 30
0.0
 11
105.7549889698
 21
297.9841150034
 31
0.0
  0
LINE
  5
247
330
1F
100
AcDbEntity
  8
OUTLINES
  6
Continuous
370
     0
100
AcDbLine
 10
67.6500095521
 20
282.7818994399
 30
0.0
 11
67.6500095521
 21
281.2818994399
 31
0.0
  0
LINE
  5
248
330
1F
100
AcDbEntity
  8
OUTLINES
100
AcDbLine
 10
88.2535095486
 20
272.4818994399
 30
0.0
 11
77.7465095521
 21
272.4818994399
 31
0.0
  0
LINE
  5
249
330
1F
100
AcDbEntity
  8
FLEXURES
  6
Continuous
 62
     1
370
     0
100
AcDbLine
 10
101.1500095521
 20
271.7578490953
 30
0.0
 11
101.0430095521
 21
271.7578490953
 31
0.0
  0
LINE
  5
24A
330
1F
100
AcDbEntity
  8
OUTLINES
100
AcDbLine
 10
112.1535095521
 20
280.4818994399
 30
0.0
 11
101.6465095521
 21
280.4818994399
 31
0.0
  0
LINE
  5
24B
330
1F
100
AcDbEntity
  8
OUTLINES
100
AcDbLine
 10
97.4500095521
 20
289.2818994399
 30
0.0
 11
92.450009548
 21
289.2818994399
 31
0.0
  0
LINE
  5
24C
330
1F
100
AcDbEntity
  8
OUTLINES
100
AcDbLine
 10
114.7500095521
 20
272.4818994399
 30
0.0
 11
114.7500095521
 21
273.8318994399
 31
0.0
  0
LINE
  5
24D
330
1F
100
AcDbEntity
  8
FLEXURES
 62
     1
100
AcDbLine
 10
66.9479889698
 20
298.1959348618
 30
0.0
 11
66.9479889698
 21
288.3426786148
 31
0.0
  0
LINE
  5
24E
330
1F
100
AcDbEntity
  8
FLEXURES
  6
Continuous
 62
     1
370
     0
100
AcDbLine
 10
86.8549889698
 20
297.9841150034
 30
0.0
 11
87.2549889698
 21
297.9841150034
 31
0.0
  0
LINE
  5
24F
330
1F
100
AcDbEntity
  8
OUTLINES
100
AcDbLine
 10
101.5584889698
 20
297.4330969814
 30
0.0
 11
101.5584889698
 21
298.0330969814
 31
0.0
  0
LINE
  5
250
330
1F
100
AcDbEntity
  8
OUTLINES
100
AcDbLine
 10
79.1584889698
 20
289.4330969814
 30
0.0
 11
79.1584889698
 21
288.8330969814
 31
0.0
  0
LINE
  5
251
330
1F
100
AcDbEntity
  8
OUTLINES
100
AcDbLine
 10
82.2549889698
 20
280.6330969814
 30
0.0
 11
82.2549889698
 21
289.4330969814
 31
0.0
  0
LINE
  5
252
330
1F
100
AcDbEntity
  8
FLEXURES
  6
Continuous
 62
     1
370
     0
100
AcDbLine
 10
87.0311942098
 20
289.4330969814
 30
0.0
 11
87.0311942098
 21
288.6330969814
 31
0.0
  0
LINE
  5
253
330
1F
100
AcDbEntity
  8
CONSTRUCTION
100
AcDbLine
 10
67.0014889698
 20
298.1959348618
 30
0.0
 11
67.0014889698
 21
288.8330969814
 31
0.0
  0
LINE
  5
254
330
1F
100
AcDbEntity
  8
OUTLINES
100
AcDbLine
 10
116.4500095521
 20
272.4818994399
 30
0.0
 11
116.4500095521
 21
280.4818994399
 31
0.0
  0
LINE
  5
255
330
1F
100
AcDbEntity
  8
OUTLINES
100
AcDbLine
 10
97.4500095521
 20
280.4818994399
 30
0.0
 11
100.5465095521
 21
280.4818994399
 31
0.0
  0
LINE
  5
256
330
1F
100
AcDbEntity
  8
OUTLINES
100
AcDbLine
 10
112.1535095521
 20
281.0818994399
 30
0.0
 11
112.1535095521
 21
280.4818994399
 31
0.0
  0
LINE
  5
257
330
1F
100
AcDbEntity
  8
FLEXURES
 62
     1
100
AcDbLine
 10
88.8570095521
 20
271.7211475701
 30
0.0
 11
88.8570095451
 21
281.5667735931
 31
0.0
  0
LINE
  5
258
330
1F
100
AcDbEntity
  8
FLEXURES
  6
Continuous
 62
     1
370
     0
100
AcDbLine
 10
67.2973477033
 20
280.4818994399
 30
0.0
 11
67.2973477033
 21
281.2818994399
 31
0.0
  0
LINE
  5
259
330
1F
100
AcDbEntity
  8
OUTLINES
100
AcDbLine
 10
100.5465095521
 20
280.4818994399
 30
0.0
 11
100.5465095521
 21
281.0818994399
 31
0.0
  0
LINE
  5
25A
330
1F
100
AcDbEntity
  8
OUTLINES
100
AcDbLine
 10
105.7549889698
 20
280.6330969814
 30
0.0
 11
105.7549889698
 21
289.4330969814
 31
0.0
  0
LINE
  5
25B
330
1F
100
AcDbEntity
  8
FLEXURES
  6
Continuous
 62
     1
370
     0
100
AcDbLine
 10
81.8549889698
 20
288.8053405586
 30
0.0
 11
82.2549889698
 21
288.8053405586
 31
0.0
  0
LINE
  5
25C
330
1F
100
AcDbEntity
  8
OUTLINES
100
AcDbLine
 10
64.1549889697
 20
290.7830969814
 30
0.0
 11
64.9549889697
 21
290.7830969814
 31
0.0
  0
LINE
  5
25D
330
1F
100
AcDbEntity
  8
CONSTRUCTION
100
AcDbLine
 10
102.1084889698
 20
298.1959348618
 30
0.0
 11
102.1084889698
 21
288.8330969814
 31
0.0
  0
LINE
  5
25E
330
1F
100
AcDbEntity
  8
OUTLINES
100
AcDbLine
 10
67.5514889698
 20
289.4330969814
 30
0.0
 11
67.5514889698
 21
288.8330969814
 31
0.0
  0
LINE
  5
25F
330
1F
100
AcDbEntity
  8
FLEXURES
 62
     1
100
AcDbLine
 10
92.050009548
 20
271.9172088157
 30
0.0
 11
92.050009548
 21
281.0959832605
 31
0.0
  0
LINE
  5
260
330
1F
100
AcDbEntity
  8
FLEXURES
  6
Continuous
 62
     1
370
     0
100
AcDbLine
 10
92.450009548
 20
271.9172088157
 30
0.0
 11
92.050009548
 21
271.9172088157
 31
0.0
  0
LINE
  5
261
330
1F
100
AcDbEntity
  8
FLEXURES
  6
Continuous
 62
     1
370
     0
100
AcDbLine
 10
92.450009548
 20
281.0959832605
 30
0.0
 11
92.050009548
 21
281.0959832605
 31
0.0
  0
LINE
  5
262
330
1F
100
AcDbEntity
  8
FLEXURES
 62
     1
100
AcDbLine
 10
77.1430095521
 20
271.7253742213
 30
0.0
 11
77.1430095521
 21
281.5710053115
 31
0.0
  0
LINE
  5
263
330
1F
100
AcDbEntity
  8
OUTLINES
  6
Continuous
370
     0
100
AcDbLine
 10
114.7500095521
 20
273.8318994399
 30
0.0
 11
115.5500095521
 21
273.8318994399
 31
0.0
  0
LINE
  5
264
330
1F
100
AcDbEntity
  8
FLEXURES
  6
Continuous
 62
     1
370
     0
100
AcDbLine
 10
90.4479889698
 20
288.346098344
 30
0.0
 11
90.5549889698
 21
288.346098344
 31
0.0
  0
LINE
  5
265
330
1F
100
AcDbEntity
  8
OUTLINES
100
AcDbLine
 10
66.4514889698
 20
289.4330969814
 30
0.0
 11
64.9549889697
 21
289.4330969814
 31
0.0
  0
LINE
  5
266
330
1F
100
AcDbEntity
  8
OUTLINES
  6
Continuous
370
     0
100
AcDbLine
 10
89.9514889698
 20
289.4330969814
 30
0.0
 11
89.9514889698
 21
288.8330969814
 31
0.0
  0
LINE
  5
267
330
1F
100
AcDbEntity
  8
OUTLINES
100
AcDbLine
 10
86.8549889698
 20
280.6330969814
 30
0.0
 11
82.2549889698
 21
280.6330969814
 31
0.0
  0
LINE
  5
268
330
1F
100
AcDbEntity
  8
FLEXURES
  6
Continuous
 62
     1
370
     0
100
AcDbLine
 10
81.895247038
 20
288.6330969814
 30
0.0
 11
87.0311942098
 21
288.6330969814
 31
0.0
  0
LINE
  5
269
330
1F
100
AcDbEntity
  8
FLEXURES
 62
     1
100
AcDbLine
 10
101.0430095521
 20
271.7578490953
 30
0.0
 11
101.0430095521
 21
281.5623327092
 31
0.0
  0
LINE
  5
26A
330
1F
100
AcDbEntity
  8
FLEXURES
 62
     1
100
AcDbLine
 10
92.450009548
 20
281.0959832605
 30
0.0
 11
92.450009548
 21
271.9172088157
 31
0.0
  0
LINE
  5
26B
330
1F
100
AcDbEntity
  8
OUTLINES
100
AcDbLine
 10
114.7500095521
 20
272.4818994399
 30
0.0
 11
113.2535095521
 21
272.4818994399
 31
0.0
  0
LINE
  5
26C
330
1F
100
AcDbEntity
  8
OUTLINES
  6
Continuous
370
     0
100
AcDbLine
 10
100.5465095521
 20
272.4818994399
 30
0.0
 11
100.5465095521
 21
271.8818994399
 31
0.0
  0
LINE
  5
26D
330
1F
100
AcDbEntity
  8
OUTLINES
  6
Continuous
370
     0
100
AcDbLine
 10
89.3535095486
 20
272.4818994399
 30
0.0
 11
89.3535095486
 21
271.8818994399
 31
0.0
  0
LINE
  5
26E
330
1F
100
AcDbEntity
  8
OUTLINES
  6
Continuous
370
     0
100
AcDbLine
 10
88.2535095486
 20
271.8818994399
 30
0.0
 11
89.3535095486
 21
271.8818994399
 31
0.0
  0
LINE
  5
26F
330
1F
100
AcDbEntity
  8
CONSTRUCTION
100
AcDbLine
 10
112.7035095521
 20
281.5581782989
 30
0.0
 11
112.7035095521
 21
271.8818994399
 31
0.0
  0
LINE
  5
270
330
1F
100
AcDbEntity
  8
OUTLINES
  6
Continuous
370
     0
100
AcDbLine
 10
83.0000095503
 20
280.4818994399
 30
0.0
 11
83.0000095503
 21
279.9818994399
 31
0.0
  0
LINE
  5
271
330
1F
100
AcDbEntity
  8
OUTLINES
100
AcDbLine
 10
110.3549889699
 20
287.1330969814
 30
0.0
 11
110.3549889699
 21
282.1330969814
 31
0.0
  0
LINE
  5
272
330
1F
100
AcDbEntity
  8
OUTLINES
100
AcDbLine
 10
111.2549889699
 20
280.6330969814
 30
0.0
 11
105.7549889698
 21
280.6330969814
 31
0.0
  0
LINE
  5
273
330
1F
100
AcDbEntity
  8
OUTLINES
  6
Continuous
370
     0
100
AcDbLine
 10
110.3549889699
 20
287.1330969814
 30
0.0
 11
111.2549889699
 21
287.1330969814
 31
0.0
  0
LINE
  5
274
330
1F
100
AcDbEntity
  8
FLEXURES
 62
     1
100
AcDbLine
 10
87.2549889698
 20
297.9841150034
 30
0.0
 11
87.2549889698
 21
288.8053405587
 31
0.0
  0
LINE
  5
275
330
1F
100
AcDbEntity
  8
FLEXURES
  6
Continuous
 62
     1
370
     0
100
AcDbLine
 10
66.9479889698
 20
298.1959348618
 30
0.0
 11
67.0549889698
 21
298.1959348618
 31
0.0
  0
LINE
  5
276
330
1F
100
AcDbEntity
  8
OUTLINES
100
AcDbLine
 10
63.2549889697
 20
297.4330969814
 30
0.0
 11
64.1549889697
 21
297.4330969814
 31
0.0
  0
LINE
  5
277
330
1F
100
AcDbEntity
  8
OUTLINES
100
AcDbLine
 10
73.5500095521
 20
289.2818994399
 30
0.0
 11
73.5500095521
 21
280.4818994399
 31
0.0
  0
LINE
  5
278
330
1F
100
AcDbEntity
  8
FLEXURES
  6
Continuous
 62
     1
370
     0
100
AcDbLine
 10
77.2500095521
 20
271.7253742213
 30
0.0
 11
77.1430095521
 21
271.7253742213
 31
0.0
  0
LINE
  5
279
330
1F
100
AcDbEntity
  8
FLEXURES
 62
     1
100
AcDbLine
 10
88.7500095521
 20
271.7211475701
 30
0.0
 11
88.7500095521
 21
281.5668122472
 31
0.0
  0
LINE
  5
27A
330
1F
100
AcDbEntity
  8
FLEXURES
  6
Continuous
 62
     1
370
     0
100
AcDbLine
 10
112.7570095521
 20
271.7177278409
 30
0.0
 11
112.6500095521
 21
271.7177278409
 31
0.0
  0
LINE
  5
27B
330
1F
100
AcDbEntity
  8
OUTLINES
100
AcDbLine
 10
112.1535095521
 20
272.4818994399
 30
0.0
 11
101.6465095521
 21
272.4818994399
 31
0.0
  0
LINE
  5
27C
330
1F
100
AcDbEntity
  8
FLEXURES2
  6
Continuous
 62
     1
370
     0
100
AcDbLine
 10
19.3890404848
 20
271.7578490953
 30
0.0
 11
19.3890404848
 21
281.5623327092
 31
0.0
  0
LINE
  5
27D
330
1F
100
AcDbEntity
  8
OUTLINES
  6
Continuous
370
     0
100
AcDbLine
 10
111.2549889699
 20
288.6330969814
 30
0.0
 11
110.3549889699
 21
288.6330969814
 31
0.0
  0
LINE
  5
27E
330
1F
100
AcDbEntity
  8
OUTLINES
100
AcDbLine
 10
105.7549889698
 20
289.4330969814
 30
0.0
 11
102.6584889698
 21
289.4330969814
 31
0.0
  0
LINE
  5
27F
330
1F
100
AcDbEntity
  8
OUTLINES
100
AcDbLine
 10
89.3535095486
 20
272.4818994399
 30
0.0
 11
100.5465095521
 21
272.4818994399
 31
0.0
  0
LINE
  5
280
330
1F
100
AcDbEntity
  8
FLEXURES
  6
Continuous
 62
     1
370
     0
100
AcDbLine
 10
73.9500095521
 20
281.0959832604
 30
0.0
 11
73.5500095521
 21
281.0959832604
 31
0.0
  0
LINE
  5
281
330
1F
100
AcDbEntity
  8
OUTLINES
100
AcDbLine
 10
116.4500095521
 20
272.4818994399
 30
0.0
 11
115.5500095521
 21
272.4818994399
 31
0.0
  0
LINE
  5
282
330
1F
100
AcDbEntity
  8
OUTLINES
  6
Continuous
370
     0
100
AcDbLine
 10
88.2535095486
 20
281.0818994399
 30
0.0
 11
89.3535095486
 21
281.0818994399
 31
0.0
  0
LINE
  5
283
330
1F
100
AcDbEntity
  8
OUTLINES
100
AcDbLine
 10
101.6465095521
 20
272.4818994399
 30
0.0
 11
101.6465095521
 21
271.8818994399
 31
0.0
  0
LINE
  5
284
330
1F
100
AcDbEntity
  8
OUTLINES
100
AcDbLine
 10
92.450009548
 20
289.2818994399
 30
0.0
 11
92.450009548
 21
280.4818994399
 31
0.0
  0
LINE
  5
285
330
1F
100
AcDbEntity
  8
OUTLINES
100
AcDbLine
 10
67.5514889698
 20
297.4330969814
 30
0.0
 11
78.0584889698
 21
297.4330969814
 31
0.0
  0
LINE
  5
286
330
1F
100
AcDbEntity
  8
FLEXURES
  6
Continuous
 62
     1
370
     0
100
AcDbLine
 10
86.8549889698
 20
288.8053405587
 30
0.0
 11
87.2549889698
 21
288.8053405587
 31
0.0
  0
LINE
  5
287
330
1F
100
AcDbEntity
  8
OUTLINES
100
AcDbLine
 10
64.9549889697
 20
290.7830969814
 30
0.0
 11
64.9549889697
 21
289.4330969814
 31
0.0
  0
LINE
  5
288
330
1F
100
AcDbEntity
  8
OUTLINES
100
AcDbLine
 10
110.3549889699
 20
282.1330969814
 30
0.0
 11
111.2549889699
 21
282.1330969814
 31
0.0
  0
LINE
  5
289
330
1F
100
AcDbEntity
  8
OUTLINES
100
AcDbLine
 10
86.8549889698
 20
289.4330969814
 30
0.0
 11
89.9514889698
 21
289.4330969814
 31
0.0
  0
LINE
  5
28A
330
1F
100
AcDbEntity
  8
OUTLINES
100
AcDbLine
 10
72.8049889698
 20
297.4330969814
 30
0.0
 11
72.8049889698
 21
296.9330969814
 31
0.0
  0
LINE
  5
28B
330
1F
100
AcDbEntity
  8
FLEXURES
  6
Continuous
 62
     1
370
     0
100
AcDbLine
 10
88.8570095451
 20
281.5667735931
 30
0.0
 11
88.7500095521
 21
281.5668122472
 31
0.0
  0
LINE
  5
28C
330
1F
100
AcDbEntity
  8
FLEXURES
  6
Continuous
 62
     1
370
     0
100
AcDbLine
 10
112.7570095521
 20
281.5581782989
 30
0.0
 11
112.6500095521
 21
281.5581782989
 31
0.0
  0
LINE
  5
28D
330
1F
100
AcDbEntity
  8
OUTLINES
100
AcDbLine
 10
76.6465095521
 20
280.4818994399
 30
0.0
 11
76.6465095521
 21
281.0818994399
 31
0.0
  0
LINE
  5
28E
330
1F
100
AcDbEntity
  8
OUTLINES
  6
Continuous
370
     0
100
AcDbLine
 10
113.2535095521
 20
280.4818994399
 30
0.0
 11
113.2535095521
 21
281.0818994399
 31
0.0
  0
LINE
  5
28F
330
1F
100
AcDbEntity
  8
OUTLINES
  6
Continuous
370
     0
100
AcDbLine
 10
112.1535095521
 20
281.0818994399
 30
0.0
 11
113.2535095521
 21
281.0818994399
 31
0.0
  0
LINE
  5
290
330
1F
100
AcDbEntity
  8
OUTLINES
100
AcDbLine
 10
91.0514889698
 20
289.4330969814
 30
0.0
 11
101.5584889698
 21
289.4330969814
 31
0.0
  0
LINE
  5
291
330
1F
100
AcDbEntity
  8
FLEXURES
  6
Continuous
 62
     1
370
     0
100
AcDbLine
 10
102.0549889698
 20
298.1959348618
 30
0.0
 11
102.1619889698
 21
298.1959348618
 31
0.0
  0
LINE
  5
292
330
1F
100
AcDbEntity
  8
FLEXURES
  6
Continuous
 62
     1
370
     0
100
AcDbLine
 10
90.4479889698
 20
298.1959348618
 30
0.0
 11
90.5549889698
 21
298.1959348618
 31
0.0
  0
LINE
  5
293
330
1F
100
AcDbEntity
  8
OUTLINES
100
AcDbLine
 10
101.5584889698
 20
298.0330969814
 30
0.0
 11
102.6584889698
 21
298.0330969814
 31
0.0
  0
LINE
  5
294
330
1F
100
AcDbEntity
  8
OUTLINES
100
AcDbLine
 10
64.1549889697
 20
290.7830969814
 30
0.0
 11
64.1549889697
 21
289.4330969814
 31
0.0
  0
LINE
  5
295
330
1F
100
AcDbEntity
  8
OUTLINES
100
AcDbLine
 10
64.1549889697
 20
296.0830969814
 30
0.0
 11
64.1549889697
 21
297.4330969814
 31
0.0
  0
LINE
  5
296
330
1F
100
AcDbEntity
  8
OUTLINES
100
AcDbLine
 10
101.5584889698
 20
288.8330969814
 30
0.0
 11
102.6584889698
 21
288.8330969814
 31
0.0
  0
LINE
  5
297
330
1F
100
AcDbEntity
  8
OUTLINES
  6
Continuous
370
     0
100
AcDbLine
 10
79.1584889698
 20
288.8330969814
 30
0.0
 11
78.0584889698
 21
288.8330969814
 31
0.0
  0
LINE
  5
298
330
1F
100
AcDbEntity
  8
FLEXURES
 62
     1
100
AcDbLine
 10
112.6500095521
 20
271.7177278409
 30
0.0
 11
112.6500095521
 21
281.5581782989
 31
0.0
  0
LINE
  5
299
330
1F
100
AcDbEntity
  8
FLEXURES
  6
Continuous
 62
     1
370
     0
100
AcDbLine
 10
73.8332823457
 20
280.4818994399
 30
0.0
 11
67.2973477033
 21
280.4818994399
 31
0.0
  0
LINE
  5
29A
330
1F
100
AcDbEntity
  8
OUTLINES
100
AcDbLine
 10
88.2535095486
 20
272.4818994399
 30
0.0
 11
88.2535095486
 21
271.8818994399
 31
0.0
  0
LINE
  5
29B
330
1F
100
AcDbEntity
  8
FLEXURES
 62
     1
100
AcDbLine
 10
90.4479889698
 20
298.1959348618
 30
0.0
 11
90.4479889698
 21
288.346098344
 31
0.0
  0
LINE
  5
29C
330
1F
100
AcDbEntity
  8
OUTLINES
  6
Continuous
370
     0
100
AcDbLine
 10
67.5514889698
 20
288.8330969814
 30
0.0
 11
66.4514889698
 21
288.8330969814
 31
0.0
  0
LINE
  5
29D
330
1F
100
AcDbEntity
  8
OUTLINES
100
AcDbLine
 10
78.0584889698
 20
298.0330969814
 30
0.0
 11
79.1584889698
 21
298.0330969814
 31
0.0
  0
LINE
  5
29E
330
1F
100
AcDbEntity
  8
FLEXURES
  6
Continuous
 62
     1
370
     0
100
AcDbLine
 10
81.895247038
 20
289.4330969814
 30
0.0
 11
87.0311942098
 21
289.4330969814
 31
0.0
  0
LINE
  5
29F
330
1F
100
AcDbEntity
  8
OUTLINES
100
AcDbLine
 10
68.5500095521
 20
272.4818994399
 30
0.0
 11
76.6465095521
 21
272.4818994399
 31
0.0
  0
LINE
  5
2A0
330
1F
100
AcDbEntity
  8
OUTLINES
  6
Continuous
370
     0
100
AcDbLine
 10
68.5500095521
 20
282.7818994399
 30
0.0
 11
67.6500095521
 21
282.7818994399
 31
0.0
  0
LINE
  5
2A1
330
1F
100
AcDbEntity
  8
FLEXURES
  6
Continuous
 62
     1
370
     0
100
AcDbLine
 10
101.1500095521
 20
281.5623327092
 30
0.0
 11
101.0430095521
 21
281.5623327092
 31
0.0
  0
LINE
  5
2A2
330
1F
100
AcDbEntity
  8
OUTLINES
100
AcDbLine
 10
115.5500095521
 20
273.8318994399
 30
0.0
 11
115.5500095521
 21
272.4818994399
 31
0.0
  0
LINE
  5
2A3
330
1F
100
AcDbEntity
  8
OUTLINES
100
AcDbLine
 10
101.6465095521
 20
280.4818994399
 30
0.0
 11
101.6465095521
 21
281.0818994399
 31
0.0
  0
LINE
  5
2A4
330
1F
100
AcDbEntity
  8
FLEXURES2
  6
Continuous
 62
     1
370
     0
100
AcDbLine
 10
22.7654974591
 20
281.2818994399
 30
0.0
 11
28.5677437772
 21
281.2818994399
 31
0.0
  0
LINE
  5
2A5
330
1F
100
AcDbEntity
  8
OUTLINES
100
AcDbLine
 10
106.9000095521
 20
272.4818994399
 30
0.0
 11
106.9000095521
 21
272.9818994399
 31
0.0
  0
LINE
  5
2A6
330
1F
100
AcDbEntity
  8
OUTLINES
100
AcDbLine
 10
63.2549889697
 20
289.4330969814
 30
0.0
 11
64.1549889697
 21
289.4330969814
 31
0.0
  0
LINE
  5
2A7
330
1F
100
AcDbEntity
  8
OUTLINES
100
AcDbLine
 10
102.6584889698
 20
289.4330969814
 30
0.0
 11
102.6584889698
 21
288.8330969814
 31
0.0
  0
LINE
  5
2A8
330
1F
100
AcDbEntity
  8
OUTLINES
  6
Continuous
370
     0
100
AcDbLine
 10
79.1584889698
 20
297.4330969814
 30
0.0
 11
79.1584889698
 21
298.0330969814
 31
0.0
  0
LINE
  5
2A9
330
1F
100
AcDbEntity
  8
OUTLINES
100
AcDbLine
 10
64.9549889697
 20
297.4330969814
 30
0.0
 11
64.9549889697
 21
296.0830969814
 31
0.0
  0
LINE
  5
2AA
330
1F
100
AcDbEntity
  8
OUTLINES
100
AcDbLine
 10
88.2535095486
 20
280.4818994399
 30
0.0
 11
77.7465095521
 21
280.4818994399
 31
0.0
  0
LINE
  5
2AB
330
1F
100
AcDbEntity
  8
OUTLINES
100
AcDbLine
 10
116.4500095521
 20
280.4818994399
 30
0.0
 11
115.5500095521
 21
280.4818994399
 31
0.0
  0
LINE
  5
2AC
330
1F
100
AcDbEntity
  8
OUTLINES
  6
Continuous
370
     0
100
AcDbLine
 10
100.5465095521
 20
281.0818994399
 30
0.0
 11
101.6465095521
 21
281.0818994399
 31
0.0
  0
LINE
  5
2AD
330
1F
100
AcDbEntity
  8
OUTLINES
100
AcDbLine
 10
83.0000095503
 20
272.4818994399
 30
0.0
 11
83.0000095503
 21
272.9818994399
 31
0.0
  0
LINE
  5
2AE
330
1F
100
AcDbEntity
  8
FLEXURES
 62
     1
100
AcDbLine
 10
91.9713062597
 20
280.4818994399
 30
0.0
 11
91.9713062597
 21
281.2818994399
 31
0.0
  0
LINE
  5
2AF
330
1F
100
AcDbEntity
  8
FLEXURES
  6
Continuous
 62
     1
370
     0
100
AcDbLine
 10
110.5311942378
 20
289.4330969814
 30
0.0
 11
110.5311942378
 21
288.6330969814
 31
0.0
  0
LINE
  5
2B0
330
1F
100
AcDbEntity
  8
OUTLINES
100
AcDbLine
 10
91.0514889698
 20
297.4330969814
 30
0.0
 11
91.0514889698
 21
298.0330969814
 31
0.0
  0
LINE
  5
2B1
330
1F
100
AcDbEntity
  8
OUTLINES
  6
Continuous
370
     0
100
AcDbLine
 10
66.4514889698
 20
297.4330969814
 30
0.0
 11
66.4514889698
 21
298.0330969814
 31
0.0
  0
LINE
  5
2B2
330
1F
100
AcDbEntity
  8
OUTLINES
100
AcDbLine
 10
86.8549889698
 20
280.6330969814
 30
0.0
 11
86.8549889698
 21
289.4330969814
 31
0.0
  0
LINE
  5
2B3
330
1F
100
AcDbEntity
  8
OUTLINES
100
AcDbLine
 10
91.0514889698
 20
297.4330969814
 30
0.0
 11
101.5584889698
 21
297.4330969814
 31
0.0
  0
LINE
  5
2B4
330
1F
100
AcDbEntity
  8
FLEXURES
 62
     1
100
AcDbLine
 10
97.4500095521
 20
271.9172088157
 30
0.0
 11
97.8500095521
 21
271.9172088157
 31
0.0
  0
LINE
  5
2B5
330
1F
100
AcDbEntity
  8
FLEXURES
 62
     1
100
AcDbLine
 10
97.8500095521
 20
281.0959832604
 30
0.0
 11
97.8500095521
 21
271.9172088157
 31
0.0
  0
LINE
  5
2B6
330
1F
100
AcDbEntity
  8
FLEXURES
 62
     1
100
AcDbLine
 10
97.4500095521
 20
271.9172088157
 30
0.0
 11
97.4500095521
 21
281.0959832604
 31
0.0
  0
LINE
  5
2B7
330
1F
100
AcDbEntity
  8
FLEXURES
  6
Continuous
 62
     1
370
     0
100
AcDbLine
 10
77.2500095521
 20
281.5710053115
 30
0.0
 11
77.1430095521
 21
281.5710053115
 31
0.0
  0
LINE
  5
2B8
330
1F
100
AcDbEntity
  8
FLEXURES
  6
Continuous
 62
     1
370
     0
100
AcDbLine
 10
88.8570095521
 20
271.7211475701
 30
0.0
 11
88.7500095521
 21
271.7211475701
 31
0.0
  0
LINE
  5
2B9
330
1F
100
AcDbEntity
  8
OUTLINES
100
AcDbLine
 10
114.7500095521
 20
279.1318994399
 30
0.0
 11
115.5500095521
 21
279.1318994399
 31
0.0
  0
LINE
  5
2BA
330
1F
100
AcDbEntity
  8
FLEXURES
  6
Continuous
 62
     1
370
     0
100
AcDbLine
 10
73.8332823457
 20
280.4818994399
 30
0.0
 11
73.8332950905
 21
281.2818994399
 31
0.0
  0
LINE
  5
2BB
330
1F
100
AcDbEntity
  8
OUTLINES
100
AcDbLine
 10
63.2549889697
 20
297.4330969814
 30
0.0
 11
63.2549889697
 21
289.4330969814
 31
0.0
  0
LINE
  5
2BC
330
1F
100
AcDbEntity
  8
OUTLINES
100
AcDbLine
 10
79.1584889698
 20
297.4330969814
 30
0.0
 11
89.9514889698
 21
297.4330969814
 31
0.0
  0
LINE
  5
2BD
330
1F
100
AcDbEntity
  8
FLEXURES
  6
Continuous
 62
     1
370
     0
100
AcDbLine
 10
105.3549889698
 20
288.805340558
 30
0.0
 11
105.7549889698
 21
288.805340558
 31
0.0
  0
LINE
  5
2BE
330
1F
100
AcDbEntity
  8
FLEXURES
 62
     1
100
AcDbLine
 10
81.8549889698
 20
288.8053405586
 30
0.0
 11
81.8549889698
 21
297.9841150034
 31
0.0
  0
LINE
  5
2BF
330
1F
100
AcDbEntity
  8
FLEXURES
 62
     1
100
AcDbLine
 10
86.8549889698
 20
288.8053405587
 30
0.0
 11
86.8549889698
 21
297.9841150034
 31
0.0
  0
LINE
  5
2C0
330
1F
100
AcDbEntity
  8
FLEXURES
 62
     1
100
AcDbLine
 10
105.7549889698
 20
297.9841150034
 30
0.0
 11
105.7549889698
 21
288.805340558
 31
0.0
  0
LINE
  5
2C1
330
1F
100
AcDbEntity
  8
OUTLINES
  6
Continuous
370
     0
100
AcDbLine
 10
67.5514889698
 20
297.4330969814
 30
0.0
 11
67.5514889698
 21
298.0330969814
 31
0.0
  0
LINE
  5
2C2
330
1F
100
AcDbEntity
  8
OUTLINES
  6
Continuous
370
     0
100
AcDbLine
 10
66.4514889698
 20
289.4330969814
 30
0.0
 11
66.4514889698
 21
288.8330969814
 31
0.0
  0
LINE
  5
2C3
330
1F
100
AcDbEntity
  8
FLEXURES2
  6
Continuous
 62
     1
370
     0
100
AcDbLine
 10
14.7840610671
 20
267.9841150034
 30
0.0
 11
14.7840610671
 21
258.805340558
 31
0.0
  0
LINE
  5
2C4
330
1F
100
AcDbEntity
  8
FLEXURES2
  6
Continuous
 62
     1
370
     0
100
AcDbLine
 10
33.6840610671
 20
258.8053405586
 30
0.0
 11
33.6840610671
 21
267.9841150034
 31
0.0
  0
LINE
  5
2C5
330
1F
100
AcDbEntity
  8
ALIGNMENT
100
AcDbLine
 10
83.607458469
 20
232.0407403968
 30
0.0
 11
89.796464051
 21
232.0407403968
 31
0.0
  0
LINE
  5
2C6
330
1F
100
AcDbEntity
  8
ALIGNMENT
100
AcDbLine
 10
89.796464051
 20
232.0407403968
 30
0.0
 11
95.985469633
 21
232.0407403968
 31
0.0
  0
LINE
  5
2C7
330
1F
100
AcDbEntity
  8
ALIGNMENT
100
AcDbLine
 10
89.796464051
 20
232.0407403968
 30
0.0
 11
89.796464051
 21
238.2297459788
 31
0.0
  0
LINE
  5
2C8
330
1F
100
AcDbEntity
  8
ALIGNMENT
100
AcDbLine
 10
89.796464051
 20
225.8517348148
 30
0.0
 11
89.796464051
 21
232.0407403968
 31
0.0
  0
LINE
  5
2C9
330
1F
100
AcDbEntity
  8
FLEXURES
100
AcDbLine
 10
89.796464051
 20
238.2297459788
 30
0.0
 11
89.796464051
 21
225.8517348148
 31
0.0
  0
LINE
  5
2CA
330
1F
100
AcDbEntity
  8
FLEXURES
100
AcDbLine
 10
83.607458469
 20
232.0407403968
 30
0.0
 11
95.985469633
 21
232.0407403968
 31
0.0
  0
LINE
  5
2CB
330
1F
100
AcDbEntity
  8
FLEXURES2
  6
Continuous
 62
     1
370
     0
100
AcDbLine
 10
38.6840610671
 20
258.8053405586
 30
0.0
 11
38.6840610671
 21
267.9841150034
 31
0.0
  0
LINE
  5
2CC
330
1F
100
AcDbEntity
  8
FLEXURES2
  6
Continuous
 62
     1
370
     0
100
AcDbLine
 10
15.1840610671
 20
258.805340558
 30
0.0
 11
14.7840610671
 21
258.805340558
 31
0.0
  0
LINE
  5
2CD
330
1F
100
AcDbEntity
  8
FLEXURES2
  6
Continuous
 62
     1
370
     0
100
AcDbLine
 10
31.6820404848
 20
241.7211475701
 30
0.0
 11
31.7890404778
 21
241.7211475701
 31
0.0
  0
LINE
  5
2CE
330
1F
100
AcDbEntity
  8
FLEXURES2
  6
Continuous
 62
     1
370
     0
100
AcDbLine
 10
23.0890404848
 20
241.9172088156
 30
0.0
 11
23.0890404848
 21
251.0959832604
 31
0.0
  0
LINE
  5
2CF
330
1F
100
AcDbEntity
  8
FLEXURES2
  6
Continuous
 62
     1
370
     0
100
AcDbLine
 10
22.6890404848
 20
251.0959832604
 30
0.0
 11
22.6890404848
 21
241.9172088156
 31
0.0
  0
LINE
  5
2D0
330
1F
100
AcDbEntity
  8
FLEXURES2
  6
Continuous
 62
     1
370
     0
100
AcDbLine
 10
23.0890404848
 20
241.9172088156
 30
0.0
 11
22.6890404848
 21
241.9172088156
 31
0.0
  0
LINE
  5
2D1
330
1F
100
AcDbEntity
  8
FLEXURES2
  6
Continuous
 62
     1
370
     0
100
AcDbLine
 10
10.007855799
 20
259.4330969814
 30
0.0
 11
10.007855799
 21
258.6330969814
 31
0.0
  0
LINE
  5
2D2
330
1F
100
AcDbEntity
  8
FLEXURES2
  6
Continuous
 62
     1
370
     0
100
AcDbLine
 10
28.5677437772
 20
250.4818994398
 30
0.0
 11
28.5677437772
 21
251.2818994398
 31
0.0
  0
LINE
  5
2D3
330
1F
100
AcDbEntity
  8
FLEXURES2
  6
Continuous
 62
     1
370
     0
100
AcDbLine
 10
19.3890404848
 20
251.5623327091
 30
0.0
 11
19.4960404848
 21
251.5623327091
 31
0.0
  0
LINE
  5
2D4
330
1F
100
AcDbEntity
  8
FLEXURES2
  6
Continuous
 62
     1
370
     0
100
AcDbLine
 10
38.6438029988
 20
259.4330969814
 30
0.0
 11
33.507855827
 21
259.4330969814
 31
0.0
  0
LINE
  5
2D5
330
1F
100
AcDbEntity
  8
FLEXURES2
  6
Continuous
 62
     1
370
     0
100
AcDbLine
 10
30.0910610671
 20
268.1959348617
 30
0.0
 11
30.0910610671
 21
258.346098344
 31
0.0
  0
LINE
  5
2D6
330
1F
100
AcDbEntity
  8
FLEXURES2
  6
Continuous
 62
     1
370
     0
100
AcDbLine
 10
7.8890404848
 20
241.7177278409
 30
0.0
 11
7.8890404848
 21
251.5581782989
 31
0.0
  0
LINE
  5
2D7
330
1F
100
AcDbEntity
  8
FLEXURES2
  6
Continuous
 62
     1
370
     0
100
AcDbLine
 10
30.0910610671
 20
268.1959348617
 30
0.0
 11
29.9840610671
 21
268.1959348617
 31
0.0
  0
LINE
  5
2D8
330
1F
100
AcDbEntity
  8
FLEXURES2
  6
Continuous
 62
     1
370
     0
100
AcDbLine
 10
18.4840610671
 20
268.1959348617
 30
0.0
 11
18.3770610671
 21
268.1959348617
 31
0.0
  0
LINE
  5
2D9
330
1F
100
AcDbEntity
  8
FLEXURES2
  6
Continuous
 62
     1
370
     0
100
AcDbLine
 10
7.7820404848
 20
251.5581782989
 30
0.0
 11
7.8890404848
 21
251.5581782989
 31
0.0
  0
LINE
  5
2DA
330
1F
100
AcDbEntity
  8
FLEXURES2
  6
Continuous
 62
     1
370
     0
100
AcDbLine
 10
31.6820404848
 20
251.5667735931
 30
0.0
 11
31.7890404778
 21
251.5668122471
 31
0.0
  0
LINE
  5
2DB
330
1F
100
AcDbEntity
  8
FLEXURES2
  6
Continuous
 62
     1
370
     0
100
AcDbLine
 10
33.6840610671
 20
258.8053405586
 30
0.0
 11
33.2840610671
 21
258.8053405586
 31
0.0
  0
LINE
  5
2DC
330
1F
100
AcDbEntity
  8
FLEXURES2
  6
Continuous
 62
     1
370
     0
100
AcDbLine
 10
7.7820404848
 20
241.7177278409
 30
0.0
 11
7.8890404848
 21
241.7177278409
 31
0.0
  0
LINE
  5
2DD
330
1F
100
AcDbEntity
  8
FLEXURES2
  6
Continuous
 62
     1
370
     0
100
AcDbLine
 10
31.7890404778
 20
241.7211475701
 30
0.0
 11
31.7890404778
 21
251.5668122471
 31
0.0
  0
LINE
  5
2DE
330
1F
100
AcDbEntity
  8
FLEXURES2
  6
Continuous
 62
     1
370
     0
100
AcDbLine
 10
33.2840610671
 20
267.9841150034
 30
0.0
 11
33.2840610671
 21
258.8053405586
 31
0.0
  0
LINE
  5
2DF
330
1F
100
AcDbEntity
  8
FLEXURES2
  6
Continuous
 62
     1
370
     0
100
AcDbLine
 10
28.0890404888
 20
251.0959832604
 30
0.0
 11
28.0890404888
 21
241.9172088157
 31
0.0
  0
LINE
  5
2E0
330
1F
100
AcDbEntity
  8
FLEXURES2
  6
Continuous
 62
     1
370
     0
100
AcDbLine
 10
19.4960404848
 20
241.7578490953
 30
0.0
 11
19.4960404848
 21
251.5623327091
 31
0.0
  0
LINE
  5
2E1
330
1F
100
AcDbEntity
  8
FLEXURES2
  6
Continuous
 62
     1
370
     0
100
AcDbLine
 10
38.6438029988
 20
258.6330969814
 30
0.0
 11
33.507855827
 21
258.6330969814
 31
0.0
  0
LINE
  5
2E2
330
1F
100
AcDbEntity
  8
FLEXURES2
  6
Continuous
 62
     1
370
     0
100
AcDbLine
 10
30.0910610671
 20
258.346098344
 30
0.0
 11
29.9840610671
 21
258.346098344
 31
0.0
  0
LINE
  5
2E3
330
1F
100
AcDbEntity
  8
FLEXURES2
  6
Continuous
 62
     1
370
     0
100
AcDbLine
 10
28.0890404888
 20
251.0959832604
 30
0.0
 11
28.4890404888
 21
251.0959832604
 31
0.0
  0
LINE
  5
2E4
330
1F
100
AcDbEntity
  8
FLEXURES2
  6
Continuous
 62
     1
370
     0
100
AcDbLine
 10
28.0890404888
 20
241.9172088157
 30
0.0
 11
28.4890404888
 21
241.9172088157
 31
0.0
  0
LINE
  5
2E5
330
1F
100
AcDbEntity
  8
FLEXURES2
  6
Continuous
 62
     1
370
     0
100
AcDbLine
 10
28.4890404888
 20
241.9172088157
 30
0.0
 11
28.4890404888
 21
251.0959832604
 31
0.0
  0
LINE
  5
2E6
330
1F
100
AcDbEntity
  8
FLEXURES2
  6
Continuous
 62
     1
370
     0
100
AcDbLine
 10
38.6840610671
 20
258.8053405586
 30
0.0
 11
38.2840610671
 21
258.8053405586
 31
0.0
  0
LINE
  5
2E7
330
1F
100
AcDbEntity
  8
FLEXURES2
  6
Continuous
 62
     1
370
     0
100
AcDbLine
 10
31.6820404848
 20
241.7211475701
 30
0.0
 11
31.6820404848
 21
251.5667735931
 31
0.0
  0
LINE
  5
2E8
330
1F
100
AcDbEntity
  8
FLEXURES2
  6
Continuous
 62
     1
370
     0
100
AcDbLine
 10
33.507855827
 20
259.4330969814
 30
0.0
 11
33.507855827
 21
258.6330969814
 31
0.0
  0
LINE
  5
2E9
330
1F
100
AcDbEntity
  8
FLEXURES2
  6
Continuous
 62
     1
370
     0
100
AcDbLine
 10
33.6840610671
 20
267.9841150034
 30
0.0
 11
33.2840610671
 21
267.9841150034
 31
0.0
  0
LINE
  5
2EA
330
1F
100
AcDbEntity
  8
FLEXURES2
  6
Continuous
 62
     1
370
     0
100
AcDbLine
 10
19.3890404848
 20
241.7578490953
 30
0.0
 11
19.4960404848
 21
241.7578490953
 31
0.0
  0
LINE
  5
2EB
330
1F
100
AcDbEntity
  8
FLEXURES2
  6
Continuous
 62
     1
370
     0
100
AcDbLine
 10
15.1840610671
 20
267.9841150034
 30
0.0
 11
14.7840610671
 21
267.9841150034
 31
0.0
  0
LINE
  5
2EC
330
1F
100
AcDbEntity
  8
FLEXURES2
  6
Continuous
 62
     1
370
     0
100
AcDbLine
 10
38.6438029988
 20
259.4330969814
 30
0.0
 11
38.6438029988
 21
258.6330969814
 31
0.0
  0
LINE
  5
2ED
330
1F
100
AcDbEntity
  8
FLEXURES2
  6
Continuous
 62
     1
370
     0
100
AcDbLine
 10
18.3770610671
 20
268.1959348617
 30
0.0
 11
18.3770610671
 21
258.3379861112
 31
0.0
  0
LINE
  5
2EE
330
1F
100
AcDbEntity
  8
FLEXURES2
  6
Continuous
 62
     1
370
     0
100
AcDbLine
 10
22.7654974591
 20
250.4818994398
 30
0.0
 11
28.5677437772
 21
250.4818994398
 31
0.0
  0
LINE
  5
2EF
330
1F
100
AcDbEntity
  8
FLEXURES2
  6
Continuous
 62
     1
370
     0
100
AcDbLine
 10
22.6890404848
 20
251.0959832604
 30
0.0
 11
23.0890404848
 21
251.0959832604
 31
0.0
  0
LINE
  5
2F0
330
1F
100
AcDbEntity
  8
FLEXURES2
  6
Continuous
 62
     1
370
     0
100
AcDbLine
 10
15.1438029708
 20
258.6330969814
 30
0.0
 11
10.007855799
 21
258.6330969814
 31
0.0
  0
LINE
  5
2F1
330
1F
100
AcDbEntity
  8
FLEXURES2
  6
Continuous
 62
     1
370
     0
100
AcDbLine
 10
15.1438029708
 20
259.4330969814
 30
0.0
 11
10.007855799
 21
259.4330969814
 31
0.0
  0
LINE
  5
2F2
330
1F
100
AcDbEntity
  8
FLEXURES2
  6
Continuous
 62
     1
370
     0
100
AcDbLine
 10
15.1840610671
 20
267.9841150034
 30
0.0
 11
15.1840610671
 21
258.805340558
 31
0.0
  0
LINE
  5
2F3
330
1F
100
AcDbEntity
  8
FLEXURES2
  6
Continuous
 62
     1
370
     0
100
AcDbLine
 10
18.4840610671
 20
268.1959348617
 30
0.0
 11
18.4840610671
 21
258.3379861112
 31
0.0
  0
LINE
  5
2F4
330
1F
100
AcDbEntity
  8
FLEXURES2
  6
Continuous
 62
     1
370
     0
100
AcDbLine
 10
18.4840610671
 20
258.3379861112
 30
0.0
 11
18.3770610671
 21
258.3379861112
 31
0.0
  0
LINE
  5
2F5
330
1F
100
AcDbEntity
  8
FLEXURES2
  6
Continuous
 62
     1
370
     0
100
AcDbLine
 10
38.2840610671
 20
267.9841150034
 30
0.0
 11
38.2840610671
 21
258.8053405586
 31
0.0
  0
LINE
  5
2F6
330
1F
100
AcDbEntity
  8
FLEXURES2
  6
Continuous
 62
     1
370
     0
100
AcDbLine
 10
7.7820404848
 20
241.7177278409
 30
0.0
 11
7.7820404848
 21
251.5581782989
 31
0.0
  0
LINE
  5
2F7
330
1F
100
AcDbEntity
  8
FLEXURES2
  6
Continuous
 62
     1
370
     0
100
AcDbLine
 10
38.2840610671
 20
267.9841150034
 30
0.0
 11
38.6840610671
 21
267.9841150034
 31
0.0
  0
LINE
  5
2F8
330
1F
100
AcDbEntity
  8
FLEXURES2
  6
Continuous
 62
     1
370
     0
100
AcDbLine
 10
22.7654974591
 20
250.4818994398
 30
0.0
 11
22.7654974591
 21
251.2818994398
 31
0.0
  0
LINE
  5
2F9
330
1F
100
AcDbEntity
  8
FLEXURES2
  6
Continuous
 62
     1
370
     0
100
AcDbLine
 10
19.3890404848
 20
241.7578490953
 30
0.0
 11
19.3890404848
 21
251.5623327091
 31
0.0
  0
LINE
  5
2FA
330
1F
100
AcDbEntity
  8
FLEXURES2
  6
Continuous
 62
     1
370
     0
100
AcDbLine
 10
15.1438029708
 20
259.4330969814
 30
0.0
 11
15.1438029708
 21
258.6330969814
 31
0.0
  0
LINE
  5
2FB
330
1F
100
AcDbEntity
  8
FLEXURES2
  6
Continuous
 62
     1
370
     0
100
AcDbLine
 10
29.9840610671
 20
268.1959348617
 30
0.0
 11
29.9840610671
 21
258.346098344
 31
0.0
  0
LINE
  5
2FC
330
1F
100
AcDbEntity
  8
FLEXURES2
  6
Continuous
 62
     1
370
     0
100
AcDbLine
 10
22.7654974591
 20
251.2818994398
 30
0.0
 11
28.5677437772
 21
251.2818994398
 31
0.0
  0
LINE
  5
2FD
330
1F
100
AcDbEntity
  8
FLEXURES2
  6
Continuous
 62
     1
370
     0
100
AcDbLine
 10
14.7840610671
 20
297.9841150034
 30
0.0
 11
14.7840610671
 21
288.805340558
 31
0.0
  0
LINE
  5
2FE
330
1F
100
AcDbEntity
  8
FLEXURES2
  6
Continuous
 62
     1
370
     0
100
AcDbLine
 10
33.6840610671
 20
288.8053405587
 30
0.0
 11
33.6840610671
 21
297.9841150034
 31
0.0
  0
LINE
  5
2FF
330
1F
100
AcDbEntity
  8
FLEXURES2
  6
Continuous
 62
     1
370
     0
100
AcDbLine
 10
38.6840610671
 20
288.8053405586
 30
0.0
 11
38.6840610671
 21
297.9841150034
 31
0.0
  0
LINE
  5
300
330
1F
100
AcDbEntity
  8
FLEXURES2
  6
Continuous
 62
     1
370
     0
100
AcDbLine
 10
15.1840610671
 20
288.805340558
 30
0.0
 11
14.7840610671
 21
288.805340558
 31
0.0
  0
LINE
  5
301
330
1F
100
AcDbEntity
  8
FLEXURES2
  6
Continuous
 62
     1
370
     0
100
AcDbLine
 10
10.007855799
 20
289.4330969814
 30
0.0
 11
10.007855799
 21
288.6330969814
 31
0.0
  0
LINE
  5
302
330
1F
100
AcDbEntity
  8
FLEXURES2
  6
Continuous
 62
     1
370
     0
100
AcDbLine
 10
38.6438029988
 20
289.4330969814
 30
0.0
 11
33.507855827
 21
289.4330969814
 31
0.0
  0
LINE
  5
303
330
1F
100
AcDbEntity
  8
FLEXURES2
  6
Continuous
 62
     1
370
     0
100
AcDbLine
 10
30.0910610671
 20
298.1959348618
 30
0.0
 11
30.0910610671
 21
288.346098344
 31
0.0
  0
LINE
  5
304
330
1F
100
AcDbEntity
  8
FLEXURES2
  6
Continuous
 62
     1
370
     0
100
AcDbLine
 10
30.0910610671
 20
298.1959348618
 30
0.0
 11
29.9840610671
 21
298.1959348618
 31
0.0
  0
LINE
  5
305
330
1F
100
AcDbEntity
  8
FLEXURES2
  6
Continuous
 62
     1
370
     0
100
AcDbLine
 10
18.4840610671
 20
298.1959348618
 30
0.0
 11
18.3770610671
 21
298.1959348618
 31
0.0
  0
LINE
  5
306
330
1F
100
AcDbEntity
  8
FLEXURES2
  6
Continuous
 62
     1
370
     0
100
AcDbLine
 10
33.6840610671
 20
288.8053405587
 30
0.0
 11
33.2840610671
 21
288.8053405587
 31
0.0
  0
LINE
  5
307
330
1F
100
AcDbEntity
  8
FLEXURES2
  6
Continuous
 62
     1
370
     0
100
AcDbLine
 10
53.5910610671
 20
298.1959348618
 30
0.0
 11
53.4840610671
 21
298.1959348618
 31
0.0
  0
LINE
  5
308
330
1F
100
AcDbEntity
  8
FLEXURES2
  6
Continuous
 62
     1
370
     0
100
AcDbLine
 10
33.2840610671
 20
297.9841150034
 30
0.0
 11
33.2840610671
 21
288.8053405587
 31
0.0
  0
LINE
  5
309
330
1F
100
AcDbEntity
  8
FLEXURES2
  6
Continuous
 62
     1
370
     0
100
AcDbLine
 10
38.6438029988
 20
288.6330969814
 30
0.0
 11
33.507855827
 21
288.6330969814
 31
0.0
  0
LINE
  5
30A
330
1F
100
AcDbEntity
  8
FLEXURES2
  6
Continuous
 62
     1
370
     0
100
AcDbLine
 10
30.0910610671
 20
288.346098344
 30
0.0
 11
29.9840610671
 21
288.346098344
 31
0.0
  0
LINE
  5
30B
330
1F
100
AcDbEntity
  8
FLEXURES2
  6
Continuous
 62
     1
370
     0
100
AcDbLine
 10
38.6840610671
 20
288.8053405586
 30
0.0
 11
38.2840610671
 21
288.8053405586
 31
0.0
  0
LINE
  5
30C
330
1F
100
AcDbEntity
  8
FLEXURES2
  6
Continuous
 62
     1
370
     0
100
AcDbLine
 10
33.507855827
 20
289.4330969814
 30
0.0
 11
33.507855827
 21
288.6330969814
 31
0.0
  0
LINE
  5
30D
330
1F
100
AcDbEntity
  8
FLEXURES2
  6
Continuous
 62
     1
370
     0
100
AcDbLine
 10
33.6840610671
 20
297.9841150034
 30
0.0
 11
33.2840610671
 21
297.9841150034
 31
0.0
  0
LINE
  5
30E
330
1F
100
AcDbEntity
  8
FLEXURES2
  6
Continuous
 62
     1
370
     0
100
AcDbLine
 10
53.5910610671
 20
298.1959348618
 30
0.0
 11
53.5910610671
 21
288.3426786148
 31
0.0
  0
LINE
  5
30F
330
1F
100
AcDbEntity
  8
FLEXURES2
  6
Continuous
 62
     1
370
     0
100
AcDbLine
 10
15.1840610671
 20
297.9841150034
 30
0.0
 11
14.7840610671
 21
297.9841150034
 31
0.0
  0
LINE
  5
310
330
1F
100
AcDbEntity
  8
FLEXURES2
  6
Continuous
 62
     1
370
     0
100
AcDbLine
 10
53.4840610671
 20
298.1959348618
 30
0.0
 11
53.4840610671
 21
288.3426786148
 31
0.0
  0
LINE
  5
311
330
1F
100
AcDbEntity
  8
FLEXURES2
  6
Continuous
 62
     1
370
     0
100
AcDbLine
 10
41.9840610671
 20
298.1959348618
 30
0.0
 11
41.8770610671
 21
298.1959348618
 31
0.0
  0
LINE
  5
312
330
1F
100
AcDbEntity
  8
FLEXURES2
  6
Continuous
 62
     1
370
     0
100
AcDbLine
 10
38.6438029988
 20
289.4330969814
 30
0.0
 11
38.6438029988
 21
288.6330969814
 31
0.0
  0
LINE
  5
313
330
1F
100
AcDbEntity
  8
FLEXURES2
  6
Continuous
 62
     1
370
     0
100
AcDbLine
 10
18.3770610671
 20
298.1959348618
 30
0.0
 11
18.3770610671
 21
288.3379861113
 31
0.0
  0
LINE
  5
314
330
1F
100
AcDbEntity
  8
FLEXURES2
  6
Continuous
 62
     1
370
     0
100
AcDbLine
 10
15.1438029708
 20
288.6330969814
 30
0.0
 11
10.007855799
 21
288.6330969814
 31
0.0
  0
LINE
  5
315
330
1F
100
AcDbEntity
  8
FLEXURES2
  6
Continuous
 62
     1
370
     0
100
AcDbLine
 10
15.1438029708
 20
289.4330969814
 30
0.0
 11
10.007855799
 21
289.4330969814
 31
0.0
  0
LINE
  5
316
330
1F
100
AcDbEntity
  8
FLEXURES2
  6
Continuous
 62
     1
370
     0
100
AcDbLine
 10
15.1840610671
 20
297.9841150034
 30
0.0
 11
15.1840610671
 21
288.805340558
 31
0.0
  0
LINE
  5
317
330
1F
100
AcDbEntity
  8
FLEXURES2
  6
Continuous
 62
     1
370
     0
100
AcDbLine
 10
18.4840610671
 20
298.1959348618
 30
0.0
 11
18.4840610671
 21
288.3379861113
 31
0.0
  0
LINE
  5
318
330
1F
100
AcDbEntity
  8
FLEXURES2
  6
Continuous
 62
     1
370
     0
100
AcDbLine
 10
18.4840610671
 20
288.3379861113
 30
0.0
 11
18.3770610671
 21
288.3379861113
 31
0.0
  0
LINE
  5
319
330
1F
100
AcDbEntity
  8
FLEXURES2
  6
Continuous
 62
     1
370
     0
100
AcDbLine
 10
38.2840610671
 20
297.9841150034
 30
0.0
 11
38.2840610671
 21
288.8053405586
 31
0.0
  0
LINE
  5
31A
330
1F
100
AcDbEntity
  8
FLEXURES2
  6
Continuous
 62
     1
370
     0
100
AcDbLine
 10
38.2840610671
 20
297.9841150034
 30
0.0
 11
38.6840610671
 21
297.9841150034
 31
0.0
  0
LINE
  5
31B
330
1F
100
AcDbEntity
  8
FLEXURES2
  6
Continuous
 62
     1
370
     0
100
AcDbLine
 10
15.1438029708
 20
289.4330969814
 30
0.0
 11
15.1438029708
 21
288.6330969814
 31
0.0
  0
LINE
  5
31C
330
1F
100
AcDbEntity
  8
FLEXURES2
  6
Continuous
 62
     1
370
     0
100
AcDbLine
 10
29.9840610671
 20
298.1959348618
 30
0.0
 11
29.9840610671
 21
288.346098344
 31
0.0
  0
LINE
  5
31D
330
1F
100
AcDbEntity
  8
FLEXURES2
  6
Continuous
 62
     1
370
     0
100
AcDbLine
 10
41.8770610671
 20
298.1959348618
 30
0.0
 11
41.8770610671
 21
288.3704609856
 31
0.0
  0
LINE
  5
31E
330
1F
100
AcDbEntity
  8
FLEXURES2
  6
Continuous
 62
     1
370
     0
100
AcDbLine
 10
41.9840610671
 20
298.1959348618
 30
0.0
 11
41.9840610671
 21
288.3704609856
 31
0.0
  0
LINE
  5
31F
330
1F
100
AcDbEntity
  8
FLEXURES2
  6
Continuous
 62
     1
370
     0
100
AcDbLine
 10
68.6002765887
 20
297.3109652368
 30
0.0
 11
58.5940214301
 21
297.3109652368
 31
0.0
  0
LINE
  5
320
330
1F
100
AcDbEntity
  8
FLEXURES2
  6
Continuous
 62
     1
370
     0
100
AcDbLine
 10
68.6002765887
 20
297.3109652368
 30
0.0
 11
68.6002765887
 21
297.2039652368
 31
0.0
  0
LINE
  5
321
330
1F
100
AcDbEntity
  8
FLEXURES2
  6
Continuous
 62
     1
370
     0
100
AcDbLine
 10
58.5940214301
 20
297.3109652368
 30
0.0
 11
58.5945511534
 21
297.2039652368
 31
0.0
  0
LINE
  5
322
330
1F
100
AcDbEntity
  8
FLEXURES2
  6
Continuous
 62
     1
370
     0
100
AcDbLine
 10
58.5945511534
 20
297.2039652368
 30
0.0
 11
68.6002765887
 21
297.2039652368
 31
0.0
  0
LINE
  5
323
330
1F
100
AcDbEntity
  8
FLEXURES2
  6
Continuous
 62
     1
370
     0
100
AcDbLine
 10
95.6002765883
 20
297.3109652368
 30
0.0
 11
85.5940214298
 21
297.3109652368
 31
0.0
  0
LINE
  5
324
330
1F
100
AcDbEntity
  8
FLEXURES2
  6
Continuous
 62
     1
370
     0
100
AcDbLine
 10
95.6002765883
 20
297.3109652368
 30
0.0
 11
95.6002765883
 21
297.2039652368
 31
0.0
  0
LINE
  5
325
330
1F
100
AcDbEntity
  8
FLEXURES2
  6
Continuous
 62
     1
370
     0
100
AcDbLine
 10
85.5940214298
 20
297.3109652368
 30
0.0
 11
85.5945511534
 21
297.2039652368
 31
0.0
  0
LINE
  5
326
330
1F
100
AcDbEntity
  8
FLEXURES2
  6
Continuous
 62
     1
370
     0
100
AcDbLine
 10
85.5945511534
 20
297.2039652368
 30
0.0
 11
95.6002765883
 21
297.2039652368
 31
0.0
  0
LINE
  5
327
330
1F
100
AcDbEntity
  8
FLEXURES2
  6
Continuous
 62
     1
370
     0
100
AcDbLine
 10
76.5243270387
 20
290.4193665106
 30
0.0
 11
75.7243270387
 21
290.4193665106
 31
0.0
  0
LINE
  5
328
330
1F
100
AcDbEntity
  8
FLEXURES2
  6
Continuous
 62
     1
370
     0
100
AcDbLine
 10
85.5190528404
 20
286.8738719393
 30
0.0
 11
75.5913545648
 21
286.8738719393
 31
0.0
  0
LINE
  5
329
330
1F
100
AcDbEntity
  8
FLEXURES2
  6
Continuous
 62
     1
370
     0
100
AcDbLine
 10
75.5913545648
 20
286.9808719393
 30
0.0
 11
85.5190528404
 21
286.9808719393
 31
0.0
  0
LINE
  5
32A
330
1F
100
AcDbEntity
  8
FLEXURES2
  6
Continuous
 62
     1
370
     0
100
AcDbLine
 10
85.5190528404
 20
286.8738719393
 30
0.0
 11
85.5190528404
 21
286.9808719393
 31
0.0
  0
LINE
  5
32B
330
1F
100
AcDbEntity
  8
FLEXURES2
  6
Continuous
 62
     1
370
     0
100
AcDbLine
 10
46.7057676911
 20
280.4818994399
 30
0.0
 11
46.7057549464
 21
281.2818994399
 31
0.0
  0
LINE
  5
32C
330
1F
100
AcDbEntity
  8
FLEXURES2
  6
Continuous
 62
     1
370
     0
100
AcDbLine
 10
43.2890404848
 20
281.5710053115
 30
0.0
 11
43.3960404848
 21
281.5710053115
 31
0.0
  0
LINE
  5
32D
330
1F
100
AcDbEntity
  8
FLEXURES2
  6
Continuous
 62
     1
370
     0
100
AcDbLine
 10
46.7057676911
 20
280.4818994399
 30
0.0
 11
53.2417023335
 21
280.4818994399
 31
0.0
  0
LINE
  5
32E
330
1F
100
AcDbEntity
  8
FLEXURES2
  6
Continuous
 62
     1
370
     0
100
AcDbLine
 10
46.5890404848
 20
281.0959832604
 30
0.0
 11
46.9890404848
 21
281.0959832604
 31
0.0
  0
LINE
  5
32F
330
1F
100
AcDbEntity
  8
FLEXURES2
  6
Continuous
 62
     1
370
     0
100
AcDbLine
 10
43.2890404848
 20
271.7253742213
 30
0.0
 11
43.3960404848
 21
271.7253742213
 31
0.0
  0
LINE
  5
330
330
1F
100
AcDbEntity
  8
FLEXURES2
  6
Continuous
 62
     1
370
     0
100
AcDbLine
 10
43.3960404848
 20
271.7253742213
 30
0.0
 11
43.3960404848
 21
281.5710053115
 31
0.0
  0
LINE
  5
331
330
1F
100
AcDbEntity
  8
FLEXURES2
  6
Continuous
 62
     1
370
     0
100
AcDbLine
 10
53.2417023335
 20
280.4818994399
 30
0.0
 11
53.2417023335
 21
281.2818994399
 31
0.0
  0
LINE
  5
332
330
1F
100
AcDbEntity
  8
FLEXURES2
  6
Continuous
 62
     1
370
     0
100
AcDbLine
 10
53.5910610671
 20
288.3426786148
 30
0.0
 11
53.4840610671
 21
288.3426786148
 31
0.0
  0
LINE
  5
333
330
1F
100
AcDbEntity
  8
FLEXURES2
  6
Continuous
 62
     1
370
     0
100
AcDbLine
 10
46.9890404848
 20
271.9172088156
 30
0.0
 11
46.9890404848
 21
281.0959832604
 31
0.0
  0
LINE
  5
334
330
1F
100
AcDbEntity
  8
FLEXURES2
  6
Continuous
 62
     1
370
     0
100
AcDbLine
 10
46.7057549464
 20
281.2818994399
 30
0.0
 11
53.2417023335
 21
281.2818994399
 31
0.0
  0
LINE
  5
335
330
1F
100
AcDbEntity
  8
FLEXURES2
  6
Continuous
 62
     1
370
     0
100
AcDbLine
 10
46.5890404848
 20
271.9172088156
 30
0.0
 11
46.5890404848
 21
281.0959832604
 31
0.0
  0
LINE
  5
336
330
1F
100
AcDbEntity
  8
FLEXURES2
  6
Continuous
 62
     1
370
     0
100
AcDbLine
 10
43.2890404848
 20
271.7253742213
 30
0.0
 11
43.2890404848
 21
281.5710053115
 31
0.0
  0
LINE
  5
337
330
1F
100
AcDbEntity
  8
FLEXURES2
  6
Continuous
 62
     1
370
     0
100
AcDbLine
 10
41.9840610671
 20
288.3704609856
 30
0.0
 11
41.8770610671
 21
288.3704609856
 31
0.0
  0
LINE
  5
338
330
1F
100
AcDbEntity
  8
FLEXURES2
  6
Continuous
 62
     1
370
     0
100
AcDbLine
 10
46.5890404848
 20
271.9172088156
 30
0.0
 11
46.9890404848
 21
271.9172088156
 31
0.0
  0
LINE
  5
339
330
1F
100
AcDbEntity
  8
FLEXURES2
  6
Continuous
 62
     1
370
     0
100
AcDbLine
 10
75.9454012858
 20
262.1738719393
 30
0.0
 11
85.1497224245
 21
262.1738719393
 31
0.0
  0
LINE
  5
33A
330
1F
100
AcDbEntity
  8
FLEXURES2
  6
Continuous
 62
     1
370
     0
100
AcDbLine
 10
75.8814998364
 20
256.7738719393
 30
0.0
 11
75.8814998364
 21
257.1738719393
 31
0.0
  0
LINE
  5
33B
330
1F
100
AcDbEntity
  8
FLEXURES2
  6
Continuous
 62
     1
370
     0
100
AcDbLine
 10
76.5243270387
 20
290.4193665106
 30
0.0
 11
76.5243270387
 21
295.9553136824
 31
0.0
  0
LINE
  5
33C
330
1F
100
AcDbEntity
  8
FLEXURES2
  6
Continuous
 62
     1
370
     0
100
AcDbLine
 10
75.5913545648
 20
286.8738719393
 30
0.0
 11
75.5913545648
 21
286.9808719393
 31
0.0
  0
LINE
  5
33D
330
1F
100
AcDbEntity
  8
FLEXURES2
  6
Continuous
 62
     1
370
     0
100
AcDbLine
 10
75.9454012858
 20
262.1738719393
 30
0.0
 11
75.9454012858
 21
262.5738719393
 31
0.0
  0
LINE
  5
33E
330
1F
100
AcDbEntity
  8
FLEXURES2
  6
Continuous
 62
     1
370
     0
100
AcDbLine
 10
85.6019268409
 20
253.4738719393
 30
0.0
 11
75.4431022422
 21
253.4738719393
 31
0.0
  0
LINE
  5
33F
330
1F
100
AcDbEntity
  8
FLEXURES2
  6
Continuous
 62
     1
370
     0
100
AcDbLine
 10
75.8814998364
 20
256.7738719393
 30
0.0
 11
85.1004302803
 21
256.7738719393
 31
0.0
  0
LINE
  5
340
330
1F
100
AcDbEntity
  8
FLEXURES2
  6
Continuous
 62
     1
370
     0
100
AcDbLine
 10
85.4876769357
 20
265.7668719393
 30
0.0
 11
85.4876769357
 21
265.8738719393
 31
0.0
  0
LINE
  5
341
330
1F
100
AcDbEntity
  8
FLEXURES2
  6
Continuous
 62
     1
370
     0
100
AcDbLine
 10
75.8814998364
 20
257.1738719393
 30
0.0
 11
85.1004302803
 21
257.1738719393
 31
0.0
  0
LINE
  5
342
330
1F
100
AcDbEntity
  8
FLEXURES2
  6
Continuous
 62
     1
370
     0
100
AcDbLine
 10
75.4450712103
 20
232.3668719393
 30
0.0
 11
85.4885219118
 21
232.3668719393
 31
0.0
  0
LINE
  5
343
330
1F
100
AcDbEntity
  8
FLEXURES2
  6
Continuous
 62
     1
370
     0
100
AcDbLine
 10
75.4710574812
 20
265.7668719393
 30
0.0
 11
75.4710574812
 21
265.8738719393
 31
0.0
  0
LINE
  5
344
330
1F
100
AcDbEntity
  8
FLEXURES2
  6
Continuous
 62
     1
370
     0
100
AcDbLine
 10
75.4431022422
 20
253.4738719393
 30
0.0
 11
75.4431022422
 21
253.5808719393
 31
0.0
  0
LINE
  5
345
330
1F
100
AcDbEntity
  8
FLEXURES2
  6
Continuous
 62
     1
370
     0
100
AcDbLine
 10
75.4450712103
 20
232.3668719393
 30
0.0
 11
75.4450712103
 21
232.4738719393
 31
0.0
  0
LINE
  5
346
330
1F
100
AcDbEntity
  8
FLEXURES2
  6
Continuous
 62
     1
370
     0
100
AcDbLine
 10
85.1497224245
 20
262.1738719393
 30
0.0
 11
85.1497224245
 21
262.5738719393
 31
0.0
  0
LINE
  5
347
330
1F
100
AcDbEntity
  8
FLEXURES2
  6
Continuous
 62
     1
370
     0
100
AcDbLine
 10
75.5832816183
 20
290.5738719393
 30
0.0
 11
84.7206880144
 21
290.5738719393
 31
0.0
  0
LINE
  5
348
330
1F
100
AcDbEntity
  8
FLEXURES2
  6
Continuous
 62
     1
370
     0
100
AcDbLine
 10
85.6019268409
 20
253.4738719393
 30
0.0
 11
85.6019268409
 21
253.5808719393
 31
0.0
  0
LINE
  5
349
330
1F
100
AcDbEntity
  8
FLEXURES2
  6
Continuous
 62
     1
370
     0
100
AcDbLine
 10
75.9454012858
 20
262.5738719393
 30
0.0
 11
85.1497224245
 21
262.5738719393
 31
0.0
  0
LINE
  5
34A
330
1F
100
AcDbEntity
  8
FLEXURES2
  6
Continuous
 62
     1
370
     0
100
AcDbLine
 10
84.7206880144
 20
290.1738719393
 30
0.0
 11
84.7206880144
 21
290.5738719393
 31
0.0
  0
LINE
  5
34B
330
1F
100
AcDbEntity
  8
FLEXURES2
  6
Continuous
 62
     1
370
     0
100
AcDbLine
 10
76.5243270387
 20
295.9553136824
 30
0.0
 11
75.7243270387
 21
295.9553136824
 31
0.0
  0
LINE
  5
34C
330
1F
100
AcDbEntity
  8
FLEXURES2
  6
Continuous
 62
     1
370
     0
100
AcDbLine
 10
85.4876769357
 20
265.8738719393
 30
0.0
 11
75.4710574812
 21
265.8738719393
 31
0.0
  0
LINE
  5
34D
330
1F
100
AcDbEntity
  8
FLEXURES2
  6
Continuous
 62
     1
370
     0
100
AcDbLine
 10
75.4710574812
 20
265.7668719393
 30
0.0
 11
85.4876769357
 21
265.7668719393
 31
0.0
  0
LINE
  5
34E
330
1F
100
AcDbEntity
  8
FLEXURES2
  6
Continuous
 62
     1
370
     0
100
AcDbLine
 10
75.7243270387
 20
290.4193665106
 30
0.0
 11
75.7243270387
 21
295.9553136824
 31
0.0
  0
LINE
  5
34F
330
1F
100
AcDbEntity
  8
FLEXURES2
  6
Continuous
 62
     1
370
     0
100
AcDbLine
 10
85.4885219118
 20
232.3668719393
 30
0.0
 11
85.4885219118
 21
232.4738719393
 31
0.0
  0
LINE
  5
350
330
1F
100
AcDbEntity
  8
FLEXURES2
  6
Continuous
 62
     1
370
     0
100
AcDbLine
 10
75.4431022422
 20
253.5808719393
 30
0.0
 11
85.6019268409
 21
253.5808719393
 31
0.0
  0
LINE
  5
351
330
1F
100
AcDbEntity
  8
FLEXURES2
  6
Continuous
 62
     1
370
     0
100
AcDbLine
 10
75.5832816183
 20
290.1738719393
 30
0.0
 11
75.5832816183
 21
290.5738719393
 31
0.0
  0
LINE
  5
352
330
1F
100
AcDbEntity
  8
FLEXURES2
  6
Continuous
 62
     1
370
     0
100
AcDbLine
 10
85.1004302803
 20
257.1738719393
 30
0.0
 11
85.1004302803
 21
256.7738719393
 31
0.0
  0
LINE
  5
353
330
1F
100
AcDbEntity
  8
FLEXURES2
  6
Continuous
 62
     1
370
     0
100
AcDbLine
 10
75.5832816183
 20
290.1738719393
 30
0.0
 11
84.7206880144
 21
290.1738719393
 31
0.0
  0
LINE
  5
354
330
1F
100
AcDbEntity
  8
FLEXURES2
  6
Continuous
 62
     1
370
     0
100
AcDbLine
 10
85.4885219118
 20
232.4738719393
 30
0.0
 11
75.4450712103
 21
232.4738719393
 31
0.0
  0
LINE
  5
355
330
1F
100
AcDbEntity
  8
FLEXURES2
  6
Continuous
 62
     1
370
     0
100
AcDbLine
 10
76.5243270387
 20
262.5771160928
 30
0.0
 11
75.7243270387
 21
262.5771160928
 31
0.0
  0
LINE
  5
356
330
1F
100
AcDbEntity
  8
FLEXURES2
  6
Continuous
 62
     1
370
     0
100
AcDbLine
 10
75.7243270387
 20
256.7748697427
 30
0.0
 11
75.7243270387
 21
262.5771160928
 31
0.0
  0
LINE
  5
357
330
1F
100
AcDbEntity
  8
FLEXURES2
  6
Continuous
 62
     1
370
     0
100
AcDbLine
 10
67.5129152845
 20
267.7085866047
 30
0.0
 11
68.3129152845
 21
267.7085866047
 31
0.0
  0
LINE
  5
358
330
1F
100
AcDbEntity
  8
FLEXURES2
  6
Continuous
 62
     1
370
     0
100
AcDbLine
 10
68.3129152845
 20
272.8445337765
 30
0.0
 11
68.3129152845
 21
267.7085866047
 31
0.0
  0
LINE
  5
359
330
1F
100
AcDbEntity
  8
FLEXURES2
  6
Continuous
 62
     1
370
     0
100
AcDbLine
 10
67.5129152845
 20
272.8445337765
 30
0.0
 11
68.3129152845
 21
272.8445337765
 31
0.0
  0
LINE
  5
35A
330
1F
100
AcDbEntity
  8
FLEXURES2
  6
Continuous
 62
     1
370
     0
100
AcDbLine
 10
67.5129152845
 20
272.8445337765
 30
0.0
 11
67.5129152845
 21
267.7085866047
 31
0.0
  0
LINE
  5
35B
330
1F
100
AcDbEntity
  8
FLEXURES2
  6
Continuous
 62
     1
370
     0
100
AcDbLine
 10
76.5243270387
 20
256.7748697427
 30
0.0
 11
75.7243270387
 21
256.7748697427
 31
0.0
  0
LINE
  5
35C
330
1F
100
AcDbEntity
  8
FLEXURES2
  6
Continuous
 62
     1
370
     0
100
AcDbLine
 10
76.5243270387
 20
256.7748697427
 30
0.0
 11
76.5243270387
 21
262.5771160928
 31
0.0
  0
LINE
  5
35D
330
1F
100
AcDbEntity
  8
FLEXURES2
  6
Continuous
 62
     1
370
     0
100
AcDbLine
 10
67.5129152845
 20
239.8637075342
 30
0.0
 11
68.3129152845
 21
239.8637075342
 31
0.0
  0
LINE
  5
35E
330
1F
100
AcDbEntity
  8
FLEXURES2
  6
Continuous
 62
     1
370
     0
100
AcDbLine
 10
58.6699192881
 20
243.2039652368
 30
0.0
 11
68.6002765887
 21
243.2039652368
 31
0.0
  0
LINE
  5
35F
330
1F
100
AcDbEntity
  8
FLEXURES2
  6
Continuous
 62
     1
370
     0
100
AcDbLine
 10
68.6002765887
 20
243.0969652368
 30
0.0
 11
58.6699192881
 21
243.0969652368
 31
0.0
  0
LINE
  5
360
330
1F
100
AcDbEntity
  8
FLEXURES2
  6
Continuous
 62
     1
370
     0
100
AcDbLine
 10
58.6699192881
 20
243.2039652368
 30
0.0
 11
58.6699192881
 21
243.0969652368
 31
0.0
  0
LINE
  5
361
330
1F
100
AcDbEntity
  8
FLEXURES2
  6
Continuous
 62
     1
370
     0
100
AcDbLine
 10
68.1252757606
 20
267.9039652368
 30
0.0
 11
58.9476279983
 21
267.9039652368
 31
0.0
  0
LINE
  5
362
330
1F
100
AcDbEntity
  8
FLEXURES2
  6
Continuous
 62
     1
370
     0
100
AcDbLine
 10
68.125275762
 20
272.9039652368
 30
0.0
 11
68.125275762
 21
272.5039652368
 31
0.0
  0
LINE
  5
363
330
1F
100
AcDbEntity
  8
FLEXURES2
  6
Continuous
 62
     1
370
     0
100
AcDbLine
 10
67.5129152845
 20
239.8637075342
 30
0.0
 11
67.5129152845
 21
234.7277603624
 31
0.0
  0
LINE
  5
364
330
1F
100
AcDbEntity
  8
FLEXURES2
  6
Continuous
 62
     1
370
     0
100
AcDbLine
 10
68.6002765887
 20
243.2039652368
 30
0.0
 11
68.6002765887
 21
243.0969652368
 31
0.0
  0
LINE
  5
365
330
1F
100
AcDbEntity
  8
FLEXURES2
  6
Continuous
 62
     1
370
     0
100
AcDbLine
 10
68.1252757606
 20
267.9039652368
 30
0.0
 11
68.1252757606
 21
267.5039652368
 31
0.0
  0
LINE
  5
366
330
1F
100
AcDbEntity
  8
FLEXURES2
  6
Continuous
 62
     1
370
     0
100
AcDbLine
 10
58.6562364004
 20
276.2039652368
 30
0.0
 11
68.6002765887
 21
276.2039652368
 31
0.0
  0
LINE
  5
367
330
1F
100
AcDbEntity
  8
FLEXURES2
  6
Continuous
 62
     1
370
     0
100
AcDbLine
 10
68.125275762
 20
272.9039652368
 30
0.0
 11
58.9476280005
 21
272.9039652368
 31
0.0
  0
LINE
  5
368
330
1F
100
AcDbEntity
  8
FLEXURES2
  6
Continuous
 62
     1
370
     0
100
AcDbLine
 10
58.6079927084
 20
264.3109652368
 30
0.0
 11
58.6079927084
 21
264.2039652368
 31
0.0
  0
LINE
  5
369
330
1F
100
AcDbEntity
  8
FLEXURES2
  6
Continuous
 62
     1
370
     0
100
AcDbLine
 10
68.125275762
 20
272.5039652368
 30
0.0
 11
58.9476280005
 21
272.5039652368
 31
0.0
  0
LINE
  5
36A
330
1F
100
AcDbEntity
  8
FLEXURES2
  6
Continuous
 62
     1
370
     0
100
AcDbLine
 10
68.6002765887
 20
264.3109652368
 30
0.0
 11
68.6002765887
 21
264.2039652368
 31
0.0
  0
LINE
  5
36B
330
1F
100
AcDbEntity
  8
FLEXURES2
  6
Continuous
 62
     1
370
     0
100
AcDbLine
 10
68.6002765887
 20
276.2039652368
 30
0.0
 11
68.6002765887
 21
276.0969652368
 31
0.0
  0
LINE
  5
36C
330
1F
100
AcDbEntity
  8
FLEXURES2
  6
Continuous
 62
     1
370
     0
100
AcDbLine
 10
58.9476279983
 20
267.9039652368
 30
0.0
 11
58.9476279983
 21
267.5039652368
 31
0.0
  0
LINE
  5
36D
330
1F
100
AcDbEntity
  8
FLEXURES2
  6
Continuous
 62
     1
370
     0
100
AcDbLine
 10
68.1252757623
 20
239.5039652368
 30
0.0
 11
58.947628
 21
239.5039652368
 31
0.0
  0
LINE
  5
36E
330
1F
100
AcDbEntity
  8
FLEXURES2
  6
Continuous
 62
     1
370
     0
100
AcDbLine
 10
58.6562364004
 20
276.2039652368
 30
0.0
 11
58.6562364004
 21
276.0969652368
 31
0.0
  0
LINE
  5
36F
330
1F
100
AcDbEntity
  8
FLEXURES2
  6
Continuous
 62
     1
370
     0
100
AcDbLine
 10
68.1252757606
 20
267.5039652368
 30
0.0
 11
58.9476279983
 21
267.5039652368
 31
0.0
  0
LINE
  5
370
330
1F
100
AcDbEntity
  8
FLEXURES2
  6
Continuous
 62
     1
370
     0
100
AcDbLine
 10
58.947628
 20
239.9039652368
 30
0.0
 11
58.947628
 21
239.5039652368
 31
0.0
  0
LINE
  5
371
330
1F
100
AcDbEntity
  8
FLEXURES2
  6
Continuous
 62
     1
370
     0
100
AcDbLine
 10
67.5129152845
 20
234.7277603624
 30
0.0
 11
68.3129152845
 21
234.7277603624
 31
0.0
  0
LINE
  5
372
330
1F
100
AcDbEntity
  8
FLEXURES2
  6
Continuous
 62
     1
370
     0
100
AcDbLine
 10
58.6079927084
 20
264.2039652368
 30
0.0
 11
68.6002765887
 21
264.2039652368
 31
0.0
  0
LINE
  5
373
330
1F
100
AcDbEntity
  8
FLEXURES2
  6
Continuous
 62
     1
370
     0
100
AcDbLine
 10
68.6002765887
 20
264.3109652368
 30
0.0
 11
58.6079927084
 21
264.3109652368
 31
0.0
  0
LINE
  5
374
330
1F
100
AcDbEntity
  8
FLEXURES2
  6
Continuous
 62
     1
370
     0
100
AcDbLine
 10
68.3129152845
 20
239.8637075342
 30
0.0
 11
68.3129152845
 21
234.7277603624
 31
0.0
  0
LINE
  5
375
330
1F
100
AcDbEntity
  8
FLEXURES2
  6
Continuous
 62
     1
370
     0
100
AcDbLine
 10
68.6002765887
 20
276.0969652368
 30
0.0
 11
58.6562364004
 21
276.0969652368
 31
0.0
  0
LINE
  5
376
330
1F
100
AcDbEntity
  8
FLEXURES2
  6
Continuous
 62
     1
370
     0
100
AcDbLine
 10
68.1252757623
 20
239.9039652368
 30
0.0
 11
68.1252757623
 21
239.5039652368
 31
0.0
  0
LINE
  5
377
330
1F
100
AcDbEntity
  8
FLEXURES2
  6
Continuous
 62
     1
370
     0
100
AcDbLine
 10
58.9476280005
 20
272.5039652368
 30
0.0
 11
58.9476280005
 21
272.9039652368
 31
0.0
  0
LINE
  5
378
330
1F
100
AcDbEntity
  8
FLEXURES2
  6
Continuous
 62
     1
370
     0
100
AcDbLine
 10
68.1252757623
 20
239.9039652368
 30
0.0
 11
58.947628
 21
239.9039652368
 31
0.0
  0
LINE
  5
379
330
1F
100
AcDbEntity
  8
FLEXURES2
  6
Continuous
 62
     1
370
     0
100
AcDbLine
 10
103.5243270387
 20
290.4193665106
 30
0.0
 11
102.7243270387
 21
290.4193665106
 31
0.0
  0
LINE
  5
37A
330
1F
100
AcDbEntity
  8
FLEXURES2
  6
Continuous
 62
     1
370
     0
100
AcDbLine
 10
112.5190528404
 20
286.8738719393
 30
0.0
 11
102.5913545648
 21
286.8738719393
 31
0.0
  0
LINE
  5
37B
330
1F
100
AcDbEntity
  8
FLEXURES2
  6
Continuous
 62
     1
370
     0
100
AcDbLine
 10
102.5913545648
 20
286.9808719393
 30
0.0
 11
112.5190528404
 21
286.9808719393
 31
0.0
  0
LINE
  5
37C
330
1F
100
AcDbEntity
  8
FLEXURES2
  6
Continuous
 62
     1
370
     0
100
AcDbLine
 10
112.5190528404
 20
286.8738719393
 30
0.0
 11
112.5190528404
 21
286.9808719393
 31
0.0
  0
LINE
  5
37D
330
1F
100
AcDbEntity
  8
FLEXURES2
  6
Continuous
 62
     1
370
     0
100
AcDbLine
 10
102.9454012858
 20
262.1738719393
 30
0.0
 11
112.1497224245
 21
262.1738719393
 31
0.0
  0
LINE
  5
37E
330
1F
100
AcDbEntity
  8
FLEXURES2
  6
Continuous
 62
     1
370
     0
100
AcDbLine
 10
102.8814998364
 20
256.7738719393
 30
0.0
 11
102.8814998364
 21
257.1738719393
 31
0.0
  0
LINE
  5
37F
330
1F
100
AcDbEntity
  8
FLEXURES2
  6
Continuous
 62
     1
370
     0
100
AcDbLine
 10
103.5243270387
 20
290.4193665106
 30
0.0
 11
103.5243270387
 21
295.9553136824
 31
0.0
  0
LINE
  5
380
330
1F
100
AcDbEntity
  8
FLEXURES2
  6
Continuous
 62
     1
370
     0
100
AcDbLine
 10
102.5913545648
 20
286.8738719393
 30
0.0
 11
102.5913545648
 21
286.9808719393
 31
0.0
  0
LINE
  5
381
330
1F
100
AcDbEntity
  8
FLEXURES2
  6
Continuous
 62
     1
370
     0
100
AcDbLine
 10
102.9454012858
 20
262.1738719393
 30
0.0
 11
102.9454012858
 21
262.5738719393
 31
0.0
  0
LINE
  5
382
330
1F
100
AcDbEntity
  8
FLEXURES2
  6
Continuous
 62
     1
370
     0
100
AcDbLine
 10
112.6019268409
 20
253.4738719393
 30
0.0
 11
102.4431022422
 21
253.4738719393
 31
0.0
  0
LINE
  5
383
330
1F
100
AcDbEntity
  8
FLEXURES2
  6
Continuous
 62
     1
370
     0
100
AcDbLine
 10
102.8814998364
 20
256.7738719393
 30
0.0
 11
112.1004302803
 21
256.7738719393
 31
0.0
  0
LINE
  5
384
330
1F
100
AcDbEntity
  8
FLEXURES2
  6
Continuous
 62
     1
370
     0
100
AcDbLine
 10
112.4876769357
 20
265.7668719393
 30
0.0
 11
112.4876769357
 21
265.8738719393
 31
0.0
  0
LINE
  5
385
330
1F
100
AcDbEntity
  8
OUTLINES
100
AcDbLine
 10
102.6584889698
 20
259.4330969858
 30
0.0
 11
102.6584889698
 21
258.8330969858
 31
0.0
  0
LINE
  5
386
330
1F
100
AcDbEntity
  8
OUTLINES
  6
Continuous
370
     0
100
AcDbLine
 10
79.1584889698
 20
267.4330969858
 30
0.0
 11
79.1584889698
 21
268.0330969858
 31
0.0
  0
LINE
  5
387
330
1F
100
AcDbEntity
  8
OUTLINES
100
AcDbLine
 10
64.9549889697
 20
267.4330969858
 30
0.0
 11
64.9549889697
 21
266.0830969858
 31
0.0
  0
LINE
  5
388
330
1F
100
AcDbEntity
  8
OUTLINES
100
AcDbLine
 10
88.2535095486
 20
250.4818994443
 30
0.0
 11
77.7465095521
 21
250.4818994443
 31
0.0
  0
LINE
  5
389
330
1F
100
AcDbEntity
  8
OUTLINES
100
AcDbLine
 10
116.4500095521
 20
250.4818994443
 30
0.0
 11
115.5500095521
 21
250.4818994443
 31
0.0
  0
LINE
  5
38A
330
1F
100
AcDbEntity
  8
OUTLINES
  6
Continuous
370
     0
100
AcDbLine
 10
100.5465095521
 20
251.0818994443
 30
0.0
 11
101.6465095521
 21
251.0818994443
 31
0.0
  0
LINE
  5
38B
330
1F
100
AcDbEntity
  8
OUTLINES
100
AcDbLine
 10
83.0000095503
 20
242.4818994443
 30
0.0
 11
83.0000095503
 21
242.9818994443
 31
0.0
  0
LINE
  5
38C
330
1F
100
AcDbEntity
  8
FLEXURES
 62
     1
100
AcDbLine
 10
91.9713062597
 20
250.4818994443
 30
0.0
 11
91.9713062597
 21
251.2818994443
 31
0.0
  0
LINE
  5
38D
330
1F
100
AcDbEntity
  8
FLEXURES
  6
Continuous
 62
     1
370
     0
100
AcDbLine
 10
110.5311942378
 20
259.4330969858
 30
0.0
 11
110.5311942378
 21
258.6330969858
 31
0.0
  0
LINE
  5
38E
330
1F
100
AcDbEntity
  8
OUTLINES
100
AcDbLine
 10
91.0514889698
 20
267.4330969858
 30
0.0
 11
91.0514889698
 21
268.0330969858
 31
0.0
  0
LINE
  5
38F
330
1F
100
AcDbEntity
  8
OUTLINES
  6
Continuous
370
     0
100
AcDbLine
 10
66.4514889698
 20
267.4330969858
 30
0.0
 11
66.4514889698
 21
268.0330969858
 31
0.0
  0
LINE
  5
390
330
1F
100
AcDbEntity
  8
OUTLINES
100
AcDbLine
 10
86.8549889698
 20
250.6330969858
 30
0.0
 11
86.8549889698
 21
259.4330969858
 31
0.0
  0
LINE
  5
391
330
1F
100
AcDbEntity
  8
FLEXURES2
  6
Continuous
 62
     1
370
     0
100
AcDbLine
 10
102.8814998364
 20
257.1738719393
 30
0.0
 11
112.1004302803
 21
257.1738719393
 31
0.0
  0
LINE
  5
392
330
1F
100
AcDbEntity
  8
FLEXURES2
  6
Continuous
 62
     1
370
     0
100
AcDbLine
 10
102.4450712103
 20
232.3668719393
 30
0.0
 11
112.4885219118
 21
232.3668719393
 31
0.0
  0
LINE
  5
393
330
1F
100
AcDbEntity
  8
FLEXURES2
  6
Continuous
 62
     1
370
     0
100
AcDbLine
 10
102.4710574812
 20
265.7668719393
 30
0.0
 11
102.4710574812
 21
265.8738719393
 31
0.0
  0
LINE
  5
394
330
1F
100
AcDbEntity
  8
FLEXURES2
  6
Continuous
 62
     1
370
     0
100
AcDbLine
 10
102.4431022422
 20
253.4738719393
 30
0.0
 11
102.4431022422
 21
253.5808719393
 31
0.0
  0
LINE
  5
395
330
1F
100
AcDbEntity
  8
FLEXURES2
  6
Continuous
 62
     1
370
     0
100
AcDbLine
 10
102.4450712103
 20
232.3668719393
 30
0.0
 11
102.4450712103
 21
232.4738719393
 31
0.0
  0
LINE
  5
396
330
1F
100
AcDbEntity
  8
FLEXURES2
  6
Continuous
 62
     1
370
     0
100
AcDbLine
 10
112.1497224245
 20
262.1738719393
 30
0.0
 11
112.1497224245
 21
262.5738719393
 31
0.0
  0
LINE
  5
397
330
1F
100
AcDbEntity
  8
FLEXURES2
  6
Continuous
 62
     1
370
     0
100
AcDbLine
 10
102.5832816183
 20
290.5738719393
 30
0.0
 11
111.7206880144
 21
290.5738719393
 31
0.0
  0
LINE
  5
398
330
1F
100
AcDbEntity
  8
FLEXURES2
  6
Continuous
 62
     1
370
     0
100
AcDbLine
 10
112.6019268409
 20
253.4738719393
 30
0.0
 11
112.6019268409
 21
253.5808719393
 31
0.0
  0
LINE
  5
399
330
1F
100
AcDbEntity
  8
FLEXURES2
  6
Continuous
 62
     1
370
     0
100
AcDbLine
 10
102.9454012858
 20
262.5738719393
 30
0.0
 11
112.1497224245
 21
262.5738719393
 31
0.0
  0
LINE
  5
39A
330
1F
100
AcDbEntity
  8
FLEXURES2
  6
Continuous
 62
     1
370
     0
100
AcDbLine
 10
111.7206880144
 20
290.1738719393
 30
0.0
 11
111.7206880144
 21
290.5738719393
 31
0.0
  0
LINE
  5
39B
330
1F
100
AcDbEntity
  8
FLEXURES2
  6
Continuous
 62
     1
370
     0
100
AcDbLine
 10
103.5243270387
 20
295.9553136824
 30
0.0
 11
102.7243270387
 21
295.9553136824
 31
0.0
  0
LINE
  5
39C
330
1F
100
AcDbEntity
  8
FLEXURES2
  6
Continuous
 62
     1
370
     0
100
AcDbLine
 10
112.4876769357
 20
265.8738719393
 30
0.0
 11
102.4710574812
 21
265.8738719393
 31
0.0
  0
LINE
  5
39D
330
1F
100
AcDbEntity
  8
FLEXURES2
  6
Continuous
 62
     1
370
     0
100
AcDbLine
 10
102.4710574812
 20
265.7668719393
 30
0.0
 11
112.4876769357
 21
265.7668719393
 31
0.0
  0
LINE
  5
39E
330
1F
100
AcDbEntity
  8
FLEXURES2
  6
Continuous
 62
     1
370
     0
100
AcDbLine
 10
102.7243270387
 20
290.4193665106
 30
0.0
 11
102.7243270387
 21
295.9553136824
 31
0.0
  0
LINE
  5
39F
330
1F
100
AcDbEntity
  8
FLEXURES2
  6
Continuous
 62
     1
370
     0
100
AcDbLine
 10
112.4885219118
 20
232.3668719393
 30
0.0
 11
112.4885219118
 21
232.4738719393
 31
0.0
  0
LINE
  5
3A0
330
1F
100
AcDbEntity
  8
FLEXURES2
  6
Continuous
 62
     1
370
     0
100
AcDbLine
 10
102.4431022422
 20
253.5808719393
 30
0.0
 11
112.6019268409
 21
253.5808719393
 31
0.0
  0
LINE
  5
3A1
330
1F
100
AcDbEntity
  8
FLEXURES2
  6
Continuous
 62
     1
370
     0
100
AcDbLine
 10
102.5832816183
 20
290.1738719393
 30
0.0
 11
102.5832816183
 21
290.5738719393
 31
0.0
  0
LINE
  5
3A2
330
1F
100
AcDbEntity
  8
FLEXURES2
  6
Continuous
 62
     1
370
     0
100
AcDbLine
 10
112.1004302803
 20
257.1738719393
 30
0.0
 11
112.1004302803
 21
256.7738719393
 31
0.0
  0
LINE
  5
3A3
330
1F
100
AcDbEntity
  8
FLEXURES2
  6
Continuous
 62
     1
370
     0
100
AcDbLine
 10
102.5832816183
 20
290.1738719393
 30
0.0
 11
111.7206880144
 21
290.1738719393
 31
0.0
  0
LINE
  5
3A4
330
1F
100
AcDbEntity
  8
FLEXURES2
  6
Continuous
 62
     1
370
     0
100
AcDbLine
 10
112.4885219118
 20
232.4738719393
 30
0.0
 11
102.4450712103
 21
232.4738719393
 31
0.0
  0
LINE
  5
3A5
330
1F
100
AcDbEntity
  8
FLEXURES2
  6
Continuous
 62
     1
370
     0
100
AcDbLine
 10
103.5243270387
 20
262.5771160928
 30
0.0
 11
102.7243270387
 21
262.5771160928
 31
0.0
  0
LINE
  5
3A6
330
1F
100
AcDbEntity
  8
FLEXURES2
  6
Continuous
 62
     1
370
     0
100
AcDbLine
 10
102.7243270387
 20
256.7748697427
 30
0.0
 11
102.7243270387
 21
262.5771160928
 31
0.0
  0
LINE
  5
3A7
330
1F
100
AcDbEntity
  8
FLEXURES2
  6
Continuous
 62
     1
370
     0
100
AcDbLine
 10
94.5129152845
 20
267.7085866047
 30
0.0
 11
95.3129152845
 21
267.7085866047
 31
0.0
  0
LINE
  5
3A8
330
1F
100
AcDbEntity
  8
FLEXURES2
  6
Continuous
 62
     1
370
     0
100
AcDbLine
 10
95.3129152845
 20
272.8445337765
 30
0.0
 11
95.3129152845
 21
267.7085866047
 31
0.0
  0
LINE
  5
3A9
330
1F
100
AcDbEntity
  8
FLEXURES2
  6
Continuous
 62
     1
370
     0
100
AcDbLine
 10
94.5129152845
 20
272.8445337765
 30
0.0
 11
95.3129152845
 21
272.8445337765
 31
0.0
  0
LINE
  5
3AA
330
1F
100
AcDbEntity
  8
FLEXURES2
  6
Continuous
 62
     1
370
     0
100
AcDbLine
 10
94.5129152845
 20
272.8445337765
 30
0.0
 11
94.5129152845
 21
267.7085866047
 31
0.0
  0
LINE
  5
3AB
330
1F
100
AcDbEntity
  8
FLEXURES2
  6
Continuous
 62
     1
370
     0
100
AcDbLine
 10
103.5243270387
 20
256.7748697427
 30
0.0
 11
102.7243270387
 21
256.7748697427
 31
0.0
  0
LINE
  5
3AC
330
1F
100
AcDbEntity
  8
FLEXURES2
  6
Continuous
 62
     1
370
     0
100
AcDbLine
 10
103.5243270387
 20
256.7748697427
 30
0.0
 11
103.5243270387
 21
262.5771160928
 31
0.0
  0
LINE
  5
3AD
330
1F
100
AcDbEntity
  8
FLEXURES2
  6
Continuous
 62
     1
370
     0
100
AcDbLine
 10
94.5129152845
 20
239.8637075342
 30
0.0
 11
95.3129152845
 21
239.8637075342
 31
0.0
  0
LINE
  5
3AE
330
1F
100
AcDbEntity
  8
FLEXURES2
  6
Continuous
 62
     1
370
     0
100
AcDbLine
 10
85.6699192877
 20
243.2039652368
 30
0.0
 11
95.6002765883
 21
243.2039652368
 31
0.0
  0
LINE
  5
3AF
330
1F
100
AcDbEntity
  8
FLEXURES2
  6
Continuous
 62
     1
370
     0
100
AcDbLine
 10
95.6002765883
 20
243.0969652368
 30
0.0
 11
85.6699192877
 21
243.0969652368
 31
0.0
  0
LINE
  5
3B0
330
1F
100
AcDbEntity
  8
FLEXURES2
  6
Continuous
 62
     1
370
     0
100
AcDbLine
 10
85.6699192877
 20
243.2039652368
 30
0.0
 11
85.6699192877
 21
243.0969652368
 31
0.0
  0
LINE
  5
3B1
330
1F
100
AcDbEntity
  8
FLEXURES2
  6
Continuous
 62
     1
370
     0
100
AcDbLine
 10
95.1252757643
 20
267.90396524
 30
0.0
 11
85.9476280021
 21
267.9039652368
 31
0.0
  0
LINE
  5
3B2
330
1F
100
AcDbEntity
  8
FLEXURES2
  6
Continuous
 62
     1
370
     0
100
AcDbLine
 10
95.1252757655
 20
272.9039652368
 30
0.0
 11
95.1252757656
 21
272.50396524
 31
0.0
  0
LINE
  5
3B3
330
1F
100
AcDbEntity
  8
FLEXURES2
  6
Continuous
 62
     1
370
     0
100
AcDbLine
 10
94.5129152845
 20
239.8637075342
 30
0.0
 11
94.5129152845
 21
234.7277603624
 31
0.0
  0
LINE
  5
3B4
330
1F
100
AcDbEntity
  8
FLEXURES2
  6
Continuous
 62
     1
370
     0
100
AcDbLine
 10
95.6002765883
 20
243.2039652368
 30
0.0
 11
95.6002765883
 21
243.0969652368
 31
0.0
  0
LINE
  5
3B5
330
1F
100
AcDbEntity
  8
FLEXURES2
  6
Continuous
 62
     1
370
     0
100
AcDbLine
 10
95.1252757643
 20
267.90396524
 30
0.0
 11
95.1252757643
 21
267.5039652368
 31
0.0
  0
LINE
  5
3B6
330
1F
100
AcDbEntity
  8
FLEXURES2
  6
Continuous
 62
     1
370
     0
100
AcDbLine
 10
85.6562364003
 20
276.2039652368
 30
0.0
 11
95.6002765883
 21
276.2039652368
 31
0.0
  0
LINE
  5
3B7
330
1F
100
AcDbEntity
  8
FLEXURES2
  6
Continuous
 62
     1
370
     0
100
AcDbLine
 10
95.1252757655
 20
272.9039652368
 30
0.0
 11
85.9476280005
 21
272.9039652368
 31
0.0
  0
LINE
  5
3B8
330
1F
100
AcDbEntity
  8
FLEXURES2
  6
Continuous
 62
     1
370
     0
100
AcDbLine
 10
85.6079927121
 20
264.3109652368
 30
0.0
 11
85.6079927121
 21
264.2039652368
 31
0.0
  0
LINE
  5
3B9
330
1F
100
AcDbEntity
  8
FLEXURES2
  6
Continuous
 62
     1
370
     0
100
AcDbLine
 10
95.1252757656
 20
272.50396524
 30
0.0
 11
85.9476280005
 21
272.5039652368
 31
0.0
  0
LINE
  5
3BA
330
1F
100
AcDbEntity
  8
FLEXURES2
  6
Continuous
 62
     1
370
     0
100
AcDbLine
 10
95.6002765883
 20
264.3109652368
 30
0.0
 11
95.6002765883
 21
264.2039652368
 31
0.0
  0
LINE
  5
3BB
330
1F
100
AcDbEntity
  8
FLEXURES2
  6
Continuous
 62
     1
370
     0
100
AcDbLine
 10
95.6002765883
 20
276.2039652368
 30
0.0
 11
95.6002765883
 21
276.0969652368
 31
0.0
  0
LINE
  5
3BC
330
1F
100
AcDbEntity
  8
FLEXURES2
  6
Continuous
 62
     1
370
     0
100
AcDbLine
 10
85.9476280021
 20
267.9039652368
 30
0.0
 11
85.9476280021
 21
267.5039652368
 31
0.0
  0
LINE
  5
3BD
330
1F
100
AcDbEntity
  8
FLEXURES2
  6
Continuous
 62
     1
370
     0
100
AcDbLine
 10
95.1252757623
 20
239.5039652368
 30
0.0
 11
85.947628
 21
239.5039652368
 31
0.0
  0
LINE
  5
3BE
330
1F
100
AcDbEntity
  8
FLEXURES2
  6
Continuous
 62
     1
370
     0
100
AcDbLine
 10
85.6562364003
 20
276.2039652368
 30
0.0
 11
85.6562364003
 21
276.0969652368
 31
0.0
  0
LINE
  5
3BF
330
1F
100
AcDbEntity
  8
FLEXURES2
  6
Continuous
 62
     1
370
     0
100
AcDbLine
 10
95.1252757643
 20
267.5039652368
 30
0.0
 11
85.9476280021
 21
267.5039652368
 31
0.0
  0
LINE
  5
3C0
330
1F
100
AcDbEntity
  8
FLEXURES2
  6
Continuous
 62
     1
370
     0
100
AcDbLine
 10
85.947628
 20
239.9039652368
 30
0.0
 11
85.947628
 21
239.5039652368
 31
0.0
  0
LINE
  5
3C1
330
1F
100
AcDbEntity
  8
FLEXURES2
  6
Continuous
 62
     1
370
     0
100
AcDbLine
 10
94.5129152845
 20
234.7277603624
 30
0.0
 11
95.3129152845
 21
234.7277603624
 31
0.0
  0
LINE
  5
3C2
330
1F
100
AcDbEntity
  8
FLEXURES2
  6
Continuous
 62
     1
370
     0
100
AcDbLine
 10
85.6079927121
 20
264.2039652368
 30
0.0
 11
95.6002765883
 21
264.2039652368
 31
0.0
  0
LINE
  5
3C3
330
1F
100
AcDbEntity
  8
FLEXURES2
  6
Continuous
 62
     1
370
     0
100
AcDbLine
 10
95.6002765883
 20
264.3109652368
 30
0.0
 11
85.6079927121
 21
264.3109652368
 31
0.0
  0
LINE
  5
3C4
330
1F
100
AcDbEntity
  8
FLEXURES2
  6
Continuous
 62
     1
370
     0
100
AcDbLine
 10
95.3129152845
 20
239.8637075342
 30
0.0
 11
95.3129152845
 21
234.7277603624
 31
0.0
  0
LINE
  5
3C5
330
1F
100
AcDbEntity
  8
FLEXURES2
  6
Continuous
 62
     1
370
     0
100
AcDbLine
 10
95.6002765883
 20
276.0969652368
 30
0.0
 11
85.6562364003
 21
276.0969652368
 31
0.0
  0
LINE
  5
3C6
330
1F
100
AcDbEntity
  8
FLEXURES2
  6
Continuous
 62
     1
370
     0
100
AcDbLine
 10
95.1252757623
 20
239.9039652368
 30
0.0
 11
95.1252757623
 21
239.5039652368
 31
0.0
  0
LINE
  5
3C7
330
1F
100
AcDbEntity
  8
FLEXURES2
  6
Continuous
 62
     1
370
     0
100
AcDbLine
 10
85.9476280005
 20
272.5039652368
 30
0.0
 11
85.9476280005
 21
272.9039652368
 31
0.0
  0
LINE
  5
3C8
330
1F
100
AcDbEntity
  8
FLEXURES2
  6
Continuous
 62
     1
370
     0
100
AcDbLine
 10
95.1252757623
 20
239.9039652368
 30
0.0
 11
85.947628
 21
239.9039652368
 31
0.0
  0
LINE
  5
3C9
330
1F
100
AcDbEntity
  8
FLEXURES2
  6
Continuous
 62
     1
370
     0
100
AcDbLine
 10
46.7057676911
 20
250.4818994398
 30
0.0
 11
46.7057549464
 21
251.2818994398
 31
0.0
  0
LINE
  5
3CA
330
1F
100
AcDbEntity
  8
FLEXURES2
  6
Continuous
 62
     1
370
     0
100
AcDbLine
 10
43.2890404848
 20
251.5710053115
 30
0.0
 11
43.3960404848
 21
251.5710053115
 31
0.0
  0
LINE
  5
3CB
330
1F
100
AcDbEntity
  8
FLEXURES2
  6
Continuous
 62
     1
370
     0
100
AcDbLine
 10
46.7057676911
 20
250.4818994398
 30
0.0
 11
53.2417023335
 21
250.4818994398
 31
0.0
  0
LINE
  5
3CC
330
1F
100
AcDbEntity
  8
FLEXURES2
  6
Continuous
 62
     1
370
     0
100
AcDbLine
 10
46.5890404848
 20
251.0959832603
 30
0.0
 11
46.9890404848
 21
251.0959832603
 31
0.0
  0
LINE
  5
3CD
330
1F
100
AcDbEntity
  8
FLEXURES2
  6
Continuous
 62
     1
370
     0
100
AcDbLine
 10
43.2890404848
 20
241.7253742212
 30
0.0
 11
43.3960404848
 21
241.7253742212
 31
0.0
  0
LINE
  5
3CE
330
1F
100
AcDbEntity
  8
FLEXURES2
  6
Continuous
 62
     1
370
     0
100
AcDbLine
 10
53.5910610671
 20
268.1959348617
 30
0.0
 11
53.4840610671
 21
268.1959348617
 31
0.0
  0
LINE
  5
3CF
330
1F
100
AcDbEntity
  8
FLEXURES2
  6
Continuous
 62
     1
370
     0
100
AcDbLine
 10
43.3960404848
 20
241.7253742212
 30
0.0
 11
43.3960404848
 21
251.5710053115
 31
0.0
  0
LINE
  5
3D0
330
1F
100
AcDbEntity
  8
FLEXURES2
  6
Continuous
 62
     1
370
     0
100
AcDbLine
 10
53.2417023335
 20
250.4818994398
 30
0.0
 11
53.2417023335
 21
251.2818994398
 31
0.0
  0
LINE
  5
3D1
330
1F
100
AcDbEntity
  8
FLEXURES2
  6
Continuous
 62
     1
370
     0
100
AcDbLine
 10
53.5910610671
 20
268.1959348617
 30
0.0
 11
53.5910610671
 21
258.3426786147
 31
0.0
  0
LINE
  5
3D2
330
1F
100
AcDbEntity
  8
FLEXURES2
  6
Continuous
 62
     1
370
     0
100
AcDbLine
 10
53.4840610671
 20
268.1959348617
 30
0.0
 11
53.4840610671
 21
258.3426786147
 31
0.0
  0
LINE
  5
3D3
330
1F
100
AcDbEntity
  8
FLEXURES2
  6
Continuous
 62
     1
370
     0
100
AcDbLine
 10
41.9840610671
 20
268.1959348617
 30
0.0
 11
41.8770610671
 21
268.1959348617
 31
0.0
  0
LINE
  5
3D4
330
1F
100
AcDbEntity
  8
FLEXURES2
  6
Continuous
 62
     1
370
     0
100
AcDbLine
 10
53.5910610671
 20
258.3426786147
 30
0.0
 11
53.4840610671
 21
258.3426786147
 31
0.0
  0
LINE
  5
3D5
330
1F
100
AcDbEntity
  8
FLEXURES2
  6
Continuous
 62
     1
370
     0
100
AcDbLine
 10
46.9890404848
 20
241.9172088156
 30
0.0
 11
46.9890404848
 21
251.0959832603
 31
0.0
  0
LINE
  5
3D6
330
1F
100
AcDbEntity
  8
FLEXURES2
  6
Continuous
 62
     1
370
     0
100
AcDbLine
 10
46.7057549464
 20
251.2818994398
 30
0.0
 11
53.2417023335
 21
251.2818994398
 31
0.0
  0
LINE
  5
3D7
330
1F
100
AcDbEntity
  8
FLEXURES2
  6
Continuous
 62
     1
370
     0
100
AcDbLine
 10
46.5890404848
 20
241.9172088156
 30
0.0
 11
46.5890404848
 21
251.0959832603
 31
0.0
  0
LINE
  5
3D8
330
1F
100
AcDbEntity
  8
FLEXURES2
  6
Continuous
 62
     1
370
     0
100
AcDbLine
 10
43.2890404848
 20
241.7253742212
 30
0.0
 11
43.2890404848
 21
251.5710053115
 31
0.0
  0
LINE
  5
3D9
330
1F
100
AcDbEntity
  8
FLEXURES2
  6
Continuous
 62
     1
370
     0
100
AcDbLine
 10
41.9840610671
 20
258.3704609856
 30
0.0
 11
41.8770610671
 21
258.3704609856
 31
0.0
  0
LINE
  5
3DA
330
1F
100
AcDbEntity
  8
FLEXURES2
  6
Continuous
 62
     1
370
     0
100
AcDbLine
 10
41.8770610671
 20
268.1959348617
 30
0.0
 11
41.8770610671
 21
258.3704609856
 31
0.0
  0
LINE
  5
3DB
330
1F
100
AcDbEntity
  8
FLEXURES2
  6
Continuous
 62
     1
370
     0
100
AcDbLine
 10
41.9840610671
 20
268.1959348617
 30
0.0
 11
41.9840610671
 21
258.3704609856
 31
0.0
  0
LINE
  5
3DC
330
1F
100
AcDbEntity
  8
FLEXURES2
  6
Continuous
 62
     1
370
     0
100
AcDbLine
 10
46.5890404848
 20
241.9172088156
 30
0.0
 11
46.9890404848
 21
241.9172088156
 31
0.0
  0
LINE
  5
3DD
330
1F
100
AcDbEntity
  8
OUTLINES
100
AcDbLine
 10
9.5147229981
 20
288.9738719393
 30
0.0
 11
9.0147229981
 21
288.9738719393
 31
0.0
  0
LINE
  5
3DE
330
1F
100
AcDbEntity
  8
OUTLINES
100
AcDbLine
 10
16.5147229981
 20
288.9738719393
 30
0.0
 11
17.0147229981
 21
288.9738719393
 31
0.0
  0
LINE
  5
3DF
330
1F
100
AcDbEntity
  8
OUTLINES
100
AcDbLine
 10
26.0261347523
 20
241.1039652368
 30
0.0
 11
26.5261347523
 21
241.1039652368
 31
0.0
  0
LINE
  5
3E0
330
1F
100
AcDbEntity
  8
FLEXURES2
  6
CENTERX2
 62
     2
100
AcDbLine
 10
4.9890404846
 20
226.6239419326
 30
0.0
 11
115.5500095522
 21
226.6239419326
 31
0.0
  0
LINE
  5
3E1
330
1F
100
AcDbEntity
  8
FLEXURES2
  6
CENTERX2
 62
     2
100
AcDbLine
 10
60.2695250184
 20
226.6239419326
 30
0.0
 11
60.2695250184
 21
231.2168006131
 31
0.0
  0
LINE
  5
3E2
330
1F
100
AcDbEntity
  8
OUTLINES
100
AcDbLine
 10
60.5261347523
 20
241.1039652368
 30
0.0
 11
61.0261347523
 21
241.1039652368
 31
0.0
  0
LINE
  5
3E3
330
1F
100
AcDbEntity
  8
OUTLINES
100
AcDbLine
 10
33.5261347523
 20
241.1039652368
 30
0.0
 11
34.0261347523
 21
241.1039652368
 31
0.0
  0
LINE
  5
3E4
330
1F
100
AcDbEntity
  8
OUTLINES
100
AcDbLine
 10
53.0261347523
 20
241.1039652368
 30
0.0
 11
53.5261347523
 21
241.1039652368
 31
0.0
  0
LINE
  5
3E5
330
1F
100
AcDbEntity
  8
OUTLINES
100
AcDbLine
 10
43.5147229981
 20
288.9738719393
 30
0.0
 11
44.0147229981
 21
288.9738719393
 31
0.0
  0
LINE
  5
3E6
330
1F
100
AcDbEntity
  8
OUTLINES
100
AcDbLine
 10
36.5147229981
 20
288.9738719393
 30
0.0
 11
36.0147229981
 21
288.9738719393
 31
0.0
  0
LINE
  5
3E7
330
1F
100
AcDbEntity
  8
OUTLINES
100
AcDbLine
 10
53.0261347523
 20
266.3039652368
 30
0.0
 11
53.5261347523
 21
266.3039652368
 31
0.0
  0
LINE
  5
3E8
330
1F
100
AcDbEntity
  8
OUTLINES
100
AcDbLine
 10
61.0261347523
 20
266.3039652368
 30
0.0
 11
60.5261347523
 21
266.3039652368
 31
0.0
  0
LINE
  5
3E9
330
1F
100
AcDbEntity
  8
OUTLINES
100
AcDbLine
 10
61.0261347523
 20
274.1039652368
 30
0.0
 11
60.5261347523
 21
274.1039652368
 31
0.0
  0
LINE
  5
3EA
330
1F
100
AcDbEntity
  8
OUTLINES
100
AcDbLine
 10
53.0261347523
 20
274.1039652368
 30
0.0
 11
53.5261347523
 21
274.1039652368
 31
0.0
  0
LINE
  5
3EB
330
1F
100
AcDbEntity
  8
OUTLINES
100
AcDbLine
 10
36.0147229981
 20
263.7738719393
 30
0.0
 11
36.5147229981
 21
263.7738719393
 31
0.0
  0
LINE
  5
3EC
330
1F
100
AcDbEntity
  8
OUTLINES
100
AcDbLine
 10
36.0147229981
 20
255.5738719393
 30
0.0
 11
36.5147229981
 21
255.5738719393
 31
0.0
  0
LINE
  5
3ED
330
1F
100
AcDbEntity
  8
EXTENTS
100
AcDbLine
 10
0.6685978223
 20
222.563117334
 30
0.0
 11
0.6685978223
 21
304.1870430409
 31
0.0
  0
LINE
  5
3EE
330
1F
100
AcDbEntity
  8
EXTENTS
100
AcDbLine
 10
0.6685978223
 20
304.1870430409
 30
0.0
 11
119.3864525582
 21
304.1870430409
 31
0.0
  0
LINE
  5
3EF
330
1F
100
AcDbEntity
  8
OUTLINES
100
AcDbLine
 10
44.0147229981
 20
255.5738719393
 30
0.0
 11
43.5147229981
 21
255.5738719393
 31
0.0
  0
LINE
  5
3F0
330
1F
100
AcDbEntity
  8
OUTLINES
100
AcDbLine
 10
44.0147229981
 20
263.7738719393
 30
0.0
 11
43.5147229981
 21
263.7738719393
 31
0.0
  0
LINE
  5
3F1
330
1F
100
AcDbEntity
  8
OUTLINES
100
AcDbLine
 10
51.3147229981
 20
296.4738719393
 30
0.0
 11
52.8147229981
 21
296.4738719393
 31
0.0
  0
LINE
  5
3F2
330
1F
100
AcDbEntity
  8
OUTLINES
100
AcDbLine
 10
36.0147229981
 20
230.3738719393
 30
0.0
 11
37.3647229981
 21
230.3738719393
 31
0.0
  0
LINE
  5
3F3
330
1F
100
AcDbEntity
  8
OUTLINES
100
AcDbLine
 10
36.0147229981
 20
254.0773719393
 30
0.0
 11
36.0147229981
 21
265.2703719393
 31
0.0
  0
LINE
  5
3F4
330
1F
100
AcDbEntity
  8
OUTLINES
100
AcDbLine
 10
61.0261347523
 20
299.3039652368
 30
0.0
 11
59.6761347523
 21
299.3039652368
 31
0.0
  0
LINE
  5
3F5
330
1F
100
AcDbEntity
  8
OUTLINES
100
AcDbLine
 10
61.0261347523
 20
275.6004652368
 30
0.0
 11
61.0261347523
 21
264.8074652368
 31
0.0
  0
LINE
  5
3F6
330
1F
100
AcDbEntity
  8
FLEXURES
 62
     1
100
AcDbLine
 10
61.9444988835
 20
297.2039652368
 30
0.0
 11
51.9387734485
 21
297.2039652368
 31
0.0
  0
LINE
  5
3F7
330
1F
100
AcDbEntity
  8
OUTLINES
  6
Continuous
370
     0
100
AcDbLine
 10
61.0261347523
 20
275.6004652368
 30
0.0
 11
61.6261347523
 21
275.6004652368
 31
0.0
  0
LINE
  5
3F8
330
1F
100
AcDbEntity
  8
FLEXURES
  6
Continuous
 62
     1
370
     0
100
AcDbLine
 10
52.4137742746
 20
239.9039652368
 30
0.0
 11
61.5914220368
 21
239.9039652368
 31
0.0
  0
LINE
  5
3F9
330
1F
100
AcDbEntity
  8
OUTLINES
100
AcDbLine
 10
59.6761347523
 20
300.1039652368
 30
0.0
 11
59.6761347523
 21
299.3039652368
 31
0.0
  0
LINE
  5
3FA
330
1F
100
AcDbEntity
  8
FLEXURES
 62
     1
100
AcDbLine
 10
61.5914220364
 20
272.5039652368
 30
0.0
 11
61.5914220364
 21
272.9039652368
 31
0.0
  0
LINE
  5
3FB
330
1F
100
AcDbEntity
  8
FLEXURES
  6
Continuous
 62
     1
370
     0
100
AcDbLine
 10
52.4137742746
 20
239.9039652368
 30
0.0
 11
52.4137742746
 21
239.5039652368
 31
0.0
  0
LINE
  5
3FC
330
1F
100
AcDbEntity
  8
OUTLINES
100
AcDbLine
 10
53.0261347523
 20
264.8109652369
 30
0.0
 11
53.0261347523
 21
267.9039652398
 31
0.0
  0
LINE
  5
3FD
330
1F
100
AcDbEntity
  8
FLEXURES
  6
Continuous
 62
     1
370
     0
100
AcDbLine
 10
51.9387734485
 20
276.0969652368
 30
0.0
 11
61.8828136365
 21
276.0969652368
 31
0.0
  0
LINE
  5
3FE
330
1F
100
AcDbEntity
  8
OUTLINES
100
AcDbLine
 10
53.0261347523
 20
263.7109652369
 30
0.0
 11
52.4261347523
 21
263.7109652369
 31
0.0
  0
LINE
  5
3FF
330
1F
100
AcDbEntity
  8
OUTLINES
  6
Continuous
370
     0
100
AcDbLine
 10
50.7261347523
 20
234.9039652368
 30
0.0
 11
50.7261347523
 21
234.0039652368
 31
0.0
  0
LINE
  5
400
330
1F
100
AcDbEntity
  8
OUTLINES
100
AcDbLine
 10
61.0261347523
 20
296.7074652368
 30
0.0
 11
61.0261347523
 21
276.7004652368
 31
0.0
  0
LINE
  5
401
330
1F
100
AcDbEntity
  8
OUTLINES
100
AcDbLine
 10
45.7261347523
 20
234.0039652368
 30
0.0
 11
44.2261347523
 21
234.0039652368
 31
0.0
  0
LINE
  5
402
330
1F
100
AcDbEntity
  8
FLEXURES
  6
Continuous
 62
     1
370
     0
100
AcDbLine
 10
61.9450286071
 20
297.3109652368
 30
0.0
 11
61.9444988835
 21
297.2039652368
 31
0.0
  0
LINE
  5
403
330
1F
100
AcDbEntity
  8
FLEXURES
  6
Continuous
 62
     1
370
     0
100
AcDbLine
 10
52.2261347523
 20
239.8637075342
 30
0.0
 11
52.2261347523
 21
234.7277603624
 31
0.0
  0
LINE
  5
404
330
1F
100
AcDbEntity
  8
OUTLINES
100
AcDbLine
 10
53.0261347523
 20
263.7109652369
 30
0.0
 11
53.0261347523
 21
243.7039652369
 31
0.0
  0
LINE
  5
405
330
1F
100
AcDbEntity
  8
FLEXURES
  6
Continuous
 62
     1
370
     0
100
AcDbLine
 10
51.9387734485
 20
264.3109652368
 30
0.0
 11
61.9310573247
 21
264.3109652368
 31
0.0
  0
LINE
  5
406
330
1F
100
AcDbEntity
  8
OUTLINES
100
AcDbLine
 10
59.6761347523
 20
300.1039652368
 30
0.0
 11
61.0261347523
 21
300.1039652368
 31
0.0
  0
LINE
  5
407
330
1F
100
AcDbEntity
  8
OUTLINES
100
AcDbLine
 10
52.4261347523
 20
243.7039652369
 30
0.0
 11
52.4261347523
 21
242.6039652369
 31
0.0
  0
LINE
  5
408
330
1F
100
AcDbEntity
  8
OUTLINES
  6
Continuous
370
     0
100
AcDbLine
 10
52.4261347523
 20
275.6004652368
 30
0.0
 11
52.4261347523
 21
276.7004652368
 31
0.0
  0
LINE
  5
409
330
1F
100
AcDbEntity
  8
OUTLINES
  6
Continuous
370
     0
100
AcDbLine
 10
61.0261347523
 20
297.8074652368
 30
0.0
 11
61.6261347523
 21
297.8074652368
 31
0.0
  0
LINE
  5
40A
330
1F
100
AcDbEntity
  8
FLEXURES
 62
     1
100
AcDbLine
 10
61.9310573247
 20
264.2039652368
 30
0.0
 11
51.9387734485
 21
264.2039652368
 31
0.0
  0
LINE
  5
40B
330
1F
100
AcDbEntity
  8
FLEXURES
  6
Continuous
 62
     1
370
     0
100
AcDbLine
 10
53.0261347523
 20
234.7277603624
 30
0.0
 11
52.2261347523
 21
234.7277603624
 31
0.0
  0
LINE
  5
40C
330
1F
100
AcDbEntity
  8
OUTLINES
100
AcDbLine
 10
61.0261347523
 20
234.9039652368
 30
0.0
 11
61.0261347523
 21
242.6004652368
 31
0.0
  0
LINE
  5
40D
330
1F
100
AcDbEntity
  8
FLEXURES
  6
Continuous
 62
     1
370
     0
100
AcDbLine
 10
61.5914220368
 20
239.9039652368
 30
0.0
 11
61.5914220368
 21
239.5039652368
 31
0.0
  0
LINE
  5
40E
330
1F
100
AcDbEntity
  8
OUTLINES
100
AcDbLine
 10
54.3761347523
 20
300.1039652368
 30
0.0
 11
54.3761347523
 21
299.3039652368
 31
0.0
  0
LINE
  5
40F
330
1F
100
AcDbEntity
  8
OUTLINES
100
AcDbLine
 10
53.0261347523
 20
296.7074652368
 30
0.0
 11
52.4261347523
 21
296.7074652368
 31
0.0
  0
LINE
  5
410
330
1F
100
AcDbEntity
  8
FLEXURES
  6
Continuous
 62
     1
370
     0
100
AcDbLine
 10
52.4137742725
 20
267.5039652368
 30
0.0
 11
61.5914220348
 21
267.5039652368
 31
0.0
  0
LINE
  5
411
330
1F
100
AcDbEntity
  8
FLEXURES
  6
Continuous
 62
     1
370
     0
100
AcDbLine
 10
61.8828136365
 20
276.2039652368
 30
0.0
 11
61.8828136365
 21
276.0969652368
 31
0.0
  0
LINE
  5
412
330
1F
100
AcDbEntity
  8
OUTLINES
100
AcDbLine
 10
53.0261347523
 20
297.8074652368
 30
0.0
 11
53.0261347523
 21
299.3039652368
 31
0.0
  0
LINE
  5
413
330
1F
100
AcDbEntity
  8
OUTLINES
100
AcDbLine
 10
44.2261347523
 20
234.0039652368
 30
0.0
 11
44.2261347523
 21
239.5039652368
 31
0.0
  0
LINE
  5
414
330
1F
100
AcDbEntity
  8
OUTLINES
  6
Continuous
370
     0
100
AcDbLine
 10
53.0261347523
 20
276.7004652368
 30
0.0
 11
52.4261347523
 21
276.7004652368
 31
0.0
  0
LINE
  5
415
330
1F
100
AcDbEntity
  8
FLEXURES
  6
Continuous
 62
     1
370
     0
100
AcDbLine
 10
52.4137742746
 20
239.5039652368
 30
0.0
 11
61.5914220368
 21
239.5039652368
 31
0.0
  0
LINE
  5
416
330
1F
100
AcDbEntity
  8
OUTLINES
  6
Continuous
370
     0
100
AcDbLine
 10
61.0261347523
 20
296.7074652368
 30
0.0
 11
61.6261347523
 21
296.7074652368
 31
0.0
  0
LINE
  5
417
330
1F
100
AcDbEntity
  8
OUTLINES
100
AcDbLine
 10
61.6261347523
 20
243.7004652368
 30
0.0
 11
61.6261347523
 21
242.6004652368
 31
0.0
  0
LINE
  5
418
330
1F
100
AcDbEntity
  8
FLEXURES
  6
Continuous
 62
     1
370
     0
100
AcDbLine
 10
61.5914220348
 20
267.9039652368
 30
0.0
 11
61.5914220348
 21
267.5039652368
 31
0.0
  0
LINE
  5
419
330
1F
100
AcDbEntity
  8
FLEXURES
  6
Continuous
 62
     1
370
     0
100
AcDbLine
 10
51.9387734485
 20
297.3109652368
 30
0.0
 11
51.9387734485
 21
297.2039652368
 31
0.0
  0
LINE
  5
41A
330
1F
100
AcDbEntity
  8
FLEXURES
  6
Continuous
 62
     1
370
     0
100
AcDbLine
 10
51.9387734485
 20
276.2039652368
 30
0.0
 11
51.9387734485
 21
276.0969652368
 31
0.0
  0
LINE
  5
41B
330
1F
100
AcDbEntity
  8
OUTLINES
  6
Continuous
370
     0
100
AcDbLine
 10
61.0261347523
 20
242.6004652368
 30
0.0
 11
61.6261347523
 21
242.6004652368
 31
0.0
  0
LINE
  5
41C
330
1F
100
AcDbEntity
  8
OUTLINES
  6
Continuous
370
     0
100
AcDbLine
 10
53.0261347523
 20
297.8074652368
 30
0.0
 11
52.4261347523
 21
297.8074652368
 31
0.0
  0
LINE
  5
41D
330
1F
100
AcDbEntity
  8
OUTLINES
100
AcDbLine
 10
54.3761347523
 20
299.3039652368
 30
0.0
 11
53.0261347523
 21
299.3039652368
 31
0.0
  0
LINE
  5
41E
330
1F
100
AcDbEntity
  8
OUTLINES
100
AcDbLine
 10
61.0261347523
 20
243.7004652368
 30
0.0
 11
61.6261347523
 21
243.7004652368
 31
0.0
  0
LINE
  5
41F
330
1F
100
AcDbEntity
  8
OUTLINES
100
AcDbLine
 10
61.0261347523
 20
263.7074652368
 30
0.0
 11
61.6261347523
 21
263.7074652368
 31
0.0
  0
LINE
  5
420
330
1F
100
AcDbEntity
  8
FLEXURES
  6
Continuous
 62
     1
370
     0
100
AcDbLine
 10
51.9387734485
 20
264.3109652368
 30
0.0
 11
51.9387734485
 21
264.2039652368
 31
0.0
  0
LINE
  5
421
330
1F
100
AcDbEntity
  8
OUTLINES
100
AcDbLine
 10
61.0261347523
 20
263.7074652368
 30
0.0
 11
61.0261347523
 21
243.7004652368
 31
0.0
  0
LINE
  5
422
330
1F
100
AcDbEntity
  8
OUTLINES
100
AcDbLine
 10
53.0261347523
 20
239.5039652368
 30
0.0
 11
53.0261347523
 21
242.6039652369
 31
0.0
  0
LINE
  5
423
330
1F
100
AcDbEntity
  8
FLEXURES
  6
Continuous
 62
     1
370
     0
100
AcDbLine
 10
51.9387734485
 20
297.3109652368
 30
0.0
 11
61.9450286071
 21
297.3109652368
 31
0.0
  0
LINE
  5
424
330
1F
100
AcDbEntity
  8
OUTLINES
100
AcDbLine
 10
61.0261347523
 20
301.0039652368
 30
0.0
 11
61.0261347523
 21
300.1039652368
 31
0.0
  0
LINE
  5
425
330
1F
100
AcDbEntity
  8
FLEXURES
  6
Continuous
 62
     1
370
     0
100
AcDbLine
 10
52.4137742712
 20
272.50396524
 30
0.0
 11
61.5914220364
 21
272.5039652368
 31
0.0
  0
LINE
  5
426
330
1F
100
AcDbEntity
  8
OUTLINES
100
AcDbLine
 10
36.0147229981
 20
242.9533845186
 30
0.0
 11
36.5147229981
 21
242.9533845186
 31
0.0
  0
LINE
  5
427
330
1F
100
AcDbEntity
  8
OUTLINES
100
AcDbLine
 10
53.0261347523
 20
301.0039652368
 30
0.0
 11
53.0261347523
 21
300.1039652368
 31
0.0
  0
LINE
  5
428
330
1F
100
AcDbEntity
  8
OUTLINES
100
AcDbLine
 10
61.6261347523
 20
297.8074652368
 30
0.0
 11
61.6261347523
 21
296.7074652368
 31
0.0
  0
LINE
  5
429
330
1F
100
AcDbEntity
  8
OUTLINES
100
AcDbLine
 10
52.2261347523
 20
234.9039652368
 30
0.0
 11
61.0261347523
 21
234.9039652368
 31
0.0
  0
LINE
  5
42A
330
1F
100
AcDbEntity
  8
OUTLINES
100
AcDbLine
 10
36.0147229981
 20
276.3738719393
 30
0.0
 11
36.5147229981
 21
276.3738719393
 31
0.0
  0
LINE
  5
42B
330
1F
100
AcDbEntity
  8
OUTLINES
100
AcDbLine
 10
44.2261347523
 20
239.5039652368
 30
0.0
 11
53.0261347523
 21
239.5039652368
 31
0.0
  0
LINE
  5
42C
330
1F
100
AcDbEntity
  8
FLEXURES
  6
Continuous
 62
     1
370
     0
100
AcDbLine
 10
61.9310573247
 20
264.3109652368
 30
0.0
 11
61.9310573247
 21
264.2039652368
 31
0.0
  0
LINE
  5
42D
330
1F
100
AcDbEntity
  8
OUTLINES
100
AcDbLine
 10
61.6261347523
 20
276.7004652368
 30
0.0
 11
61.6261347523
 21
275.6004652368
 31
0.0
  0
LINE
  5
42E
330
1F
100
AcDbEntity
  8
OUTLINES
100
AcDbLine
 10
53.0261347523
 20
272.5039652398
 30
0.0
 11
53.0261347523
 21
275.6004652368
 31
0.0
  0
LINE
  5
42F
330
1F
100
AcDbEntity
  8
OUTLINES
  6
Continuous
370
     0
100
AcDbLine
 10
61.6261347523
 20
263.7074652368
 30
0.0
 11
61.6261347523
 21
264.8074652368
 31
0.0
  0
LINE
  5
430
330
1F
100
AcDbEntity
  8
FLEXURES
  6
Continuous
 62
     1
370
     0
100
AcDbLine
 10
52.4137742713
 20
272.9039652368
 30
0.0
 11
61.5914220364
 21
272.9039652368
 31
0.0
  0
LINE
  5
431
330
1F
100
AcDbEntity
  8
OUTLINES
100
AcDbLine
 10
61.0261347523
 20
299.3039652368
 30
0.0
 11
61.0261347523
 21
297.8074652368
 31
0.0
  0
LINE
  5
432
330
1F
100
AcDbEntity
  8
FLEXURES
 62
     1
100
AcDbLine
 10
61.8828136365
 20
276.2039652368
 30
0.0
 11
51.9387734485
 21
276.2039652368
 31
0.0
  0
LINE
  5
433
330
1F
100
AcDbEntity
  8
OUTLINES
100
AcDbLine
 10
45.7261347523
 20
234.9039652368
 30
0.0
 11
50.7261347523
 21
234.9039652368
 31
0.0
  0
LINE
  5
434
330
1F
100
AcDbEntity
  8
FLEXURES
  6
Continuous
 62
     1
370
     0
100
AcDbLine
 10
52.4137742725
 20
267.90396524
 30
0.0
 11
52.4137742725
 21
267.5039652368
 31
0.0
  0
LINE
  5
435
330
1F
100
AcDbEntity
  8
FLEXURES
  6
Continuous
 62
     1
370
     0
100
AcDbLine
 10
51.9387734485
 20
243.2039652368
 30
0.0
 11
51.9387734485
 21
243.0969652368
 31
0.0
  0
LINE
  5
436
330
1F
100
AcDbEntity
  8
OUTLINES
100
AcDbLine
 10
53.0261347523
 20
301.0039652368
 30
0.0
 11
61.0261347523
 21
301.0039652368
 31
0.0
  0
LINE
  5
437
330
1F
100
AcDbEntity
  8
OUTLINES
100
AcDbLine
 10
61.0261347523
 20
276.7004652368
 30
0.0
 11
61.6261347523
 21
276.7004652368
 31
0.0
  0
LINE
  5
438
330
1F
100
AcDbEntity
  8
FLEXURES
  6
Continuous
 62
     1
370
     0
100
AcDbLine
 10
53.0261347523
 20
239.8637075342
 30
0.0
 11
53.0261347523
 21
234.7277603624
 31
0.0
  0
LINE
  5
439
330
1F
100
AcDbEntity
  8
OUTLINES
  6
Continuous
370
     0
100
AcDbLine
 10
52.4261347523
 20
263.7109652369
 30
0.0
 11
52.4261347523
 21
264.8109652369
 31
0.0
  0
LINE
  5
43A
330
1F
100
AcDbEntity
  8
OUTLINES
  6
Continuous
370
     0
100
AcDbLine
 10
52.2261347523
 20
234.0039652368
 30
0.0
 11
52.2261347523
 21
234.9039652368
 31
0.0
  0
LINE
  5
43B
330
1F
100
AcDbEntity
  8
OUTLINES
100
AcDbLine
 10
53.0261347523
 20
242.6039652369
 30
0.0
 11
52.4261347523
 21
242.6039652369
 31
0.0
  0
LINE
  5
43C
330
1F
100
AcDbEntity
  8
FLEXURES
  6
Continuous
 62
     1
370
     0
100
AcDbLine
 10
52.4137742713
 20
272.9039652368
 30
0.0
 11
52.4137742712
 21
272.50396524
 31
0.0
  0
LINE
  5
43D
330
1F
100
AcDbEntity
  8
FLEXURES
  6
Continuous
 62
     1
370
     0
100
AcDbLine
 10
52.4137742725
 20
267.90396524
 30
0.0
 11
61.5914220348
 21
267.9039652368
 31
0.0
  0
LINE
  5
43E
330
1F
100
AcDbEntity
  8
OUTLINES
100
AcDbLine
 10
53.0261347523
 20
275.6004652368
 30
0.0
 11
52.4261347523
 21
275.6004652368
 31
0.0
  0
LINE
  5
43F
330
1F
100
AcDbEntity
  8
FLEXURES
  6
Continuous
 62
     1
370
     0
100
AcDbLine
 10
61.8691307491
 20
243.2039652368
 30
0.0
 11
61.8691307491
 21
243.0969652368
 31
0.0
  0
LINE
  5
440
330
1F
100
AcDbEntity
  8
FLEXURES
  6
Continuous
 62
     1
370
     0
100
AcDbLine
 10
51.9387734485
 20
243.0969652368
 30
0.0
 11
61.8691307491
 21
243.0969652368
 31
0.0
  0
LINE
  5
441
330
1F
100
AcDbEntity
  8
FLEXURES
 62
     1
100
AcDbLine
 10
61.8691307491
 20
243.2039652368
 30
0.0
 11
51.9387734485
 21
243.2039652368
 31
0.0
  0
LINE
  5
442
330
1F
100
AcDbEntity
  8
OUTLINES
100
AcDbLine
 10
54.3761347523
 20
300.1039652368
 30
0.0
 11
53.0261347523
 21
300.1039652368
 31
0.0
  0
LINE
  5
443
330
1F
100
AcDbEntity
  8
OUTLINES
  6
Continuous
370
     0
100
AcDbLine
 10
52.4261347523
 20
296.7074652368
 30
0.0
 11
52.4261347523
 21
297.8074652368
 31
0.0
  0
LINE
  5
444
330
1F
100
AcDbEntity
  8
OUTLINES
  6
Continuous
370
     0
100
AcDbLine
 10
53.0261347523
 20
264.8109652369
 30
0.0
 11
52.4261347523
 21
264.8109652369
 31
0.0
  0
LINE
  5
445
330
1F
100
AcDbEntity
  8
OUTLINES
  6
Continuous
370
     0
100
AcDbLine
 10
50.7261347523
 20
234.0039652368
 30
0.0
 11
52.2261347523
 21
234.0039652368
 31
0.0
  0
LINE
  5
446
330
1F
100
AcDbEntity
  8
OUTLINES
  6
Continuous
370
     0
100
AcDbLine
 10
61.0261347523
 20
264.8074652368
 30
0.0
 11
61.6261347523
 21
264.8074652368
 31
0.0
  0
LINE
  5
447
330
1F
100
AcDbEntity
  8
OUTLINES
  6
Continuous
370
     0
100
AcDbLine
 10
53.0261347523
 20
243.7039652369
 30
0.0
 11
52.4261347523
 21
243.7039652369
 31
0.0
  0
LINE
  5
448
330
1F
100
AcDbEntity
  8
FLEXURES
  6
Continuous
 62
     1
370
     0
100
AcDbLine
 10
53.0261347523
 20
239.8637075342
 30
0.0
 11
52.2261347523
 21
239.8637075342
 31
0.0
  0
LINE
  5
449
330
1F
100
AcDbEntity
  8
OUTLINES
100
AcDbLine
 10
45.7261347523
 20
234.9039652368
 30
0.0
 11
45.7261347523
 21
234.0039652368
 31
0.0
  0
LINE
  5
44A
330
1F
100
AcDbEntity
  8
OUTLINES
100
AcDbLine
 10
36.0147229981
 20
232.9703719393
 30
0.0
 11
36.0147229981
 21
252.9773719393
 31
0.0
  0
LINE
  5
44B
330
1F
100
AcDbEntity
  8
OUTLINES
100
AcDbLine
 10
36.0147229981
 20
266.3703719393
 30
0.0
 11
36.0147229981
 21
286.3773719393
 31
0.0
  0
LINE
  5
44C
330
1F
100
AcDbEntity
  8
OUTLINES
100
AcDbLine
 10
61.0261347523
 20
253.7039652368
 30
0.0
 11
60.5261347523
 21
253.7039652368
 31
0.0
  0
LINE
  5
44D
330
1F
100
AcDbEntity
  8
OUTLINES
100
AcDbLine
 10
53.0261347523
 20
296.7074652368
 30
0.0
 11
53.0261347523
 21
276.7004652368
 31
0.0
  0
LINE
  5
44E
330
1F
100
AcDbEntity
  8
OUTLINES
100
AcDbLine
 10
44.0147229981
 20
257.1738719393
 30
0.0
 11
52.8147229981
 21
257.1738719393
 31
0.0
  0
LINE
  5
44F
330
1F
100
AcDbEntity
  8
FLEXURES
 62
     1
100
AcDbLine
 10
44.0147229981
 20
256.7748697427
 30
0.0
 11
44.0147229981
 21
262.5771160928
 31
0.0
  0
LINE
  5
450
330
1F
100
AcDbEntity
  8
FLEXURES
 62
     1
100
AcDbLine
 10
44.0147229981
 20
256.7748697427
 30
0.0
 11
44.8147229981
 21
256.7748697427
 31
0.0
  0
LINE
  5
451
330
1F
100
AcDbEntity
  8
OUTLINES
100
AcDbLine
 10
44.0147229981
 20
232.9703719393
 30
0.0
 11
44.6147229981
 21
232.9703719393
 31
0.0
  0
LINE
  5
452
330
1F
100
AcDbEntity
  8
OUTLINES
  6
Continuous
370
     0
100
AcDbLine
 10
44.0147229981
 20
252.9773719393
 30
0.0
 11
44.6147229981
 21
252.9773719393
 31
0.0
  0
LINE
  5
453
330
1F
100
AcDbEntity
  8
OUTLINES
100
AcDbLine
 10
44.0147229981
 20
232.9703719393
 30
0.0
 11
44.0147229981
 21
252.9773719393
 31
0.0
  0
LINE
  5
454
330
1F
100
AcDbEntity
  8
OUTLINES
  6
Continuous
370
     0
100
AcDbLine
 10
44.0147229981
 20
276.3738719393
 30
0.0
 11
43.5147229981
 21
276.3738719393
 31
0.0
  0
LINE
  5
455
330
1F
100
AcDbEntity
  8
OUTLINES
  6
Continuous
370
     0
100
AcDbLine
 10
44.0147229981
 20
242.9738719393
 30
0.0
 11
43.5147229981
 21
242.9738719393
 31
0.0
  0
LINE
  5
456
330
1F
100
AcDbEntity
  8
OUTLINES
100
AcDbLine
 10
44.2261347523
 20
272.5039652428
 30
0.0
 11
53.0261347523
 21
272.5039652398
 31
0.0
  0
LINE
  5
457
330
1F
100
AcDbEntity
  8
OUTLINES
100
AcDbLine
 10
53.0261347523
 20
267.9039652398
 30
0.0
 11
44.2261347523
 21
267.9039652428
 31
0.0
  0
LINE
  5
458
330
1F
100
AcDbEntity
  8
OUTLINES
100
AcDbLine
 10
44.2261347523
 20
267.9039652428
 30
0.0
 11
44.2261347523
 21
272.5039652428
 31
0.0
  0
LINE
  5
459
330
1F
100
AcDbEntity
  8
FLEXURES
  6
Continuous
 62
     1
370
     0
100
AcDbLine
 10
53.0261347523
 20
272.8445337765
 30
0.0
 11
53.0261347523
 21
267.7085866047
 31
0.0
  0
LINE
  5
45A
330
1F
100
AcDbEntity
  8
FLEXURES
  6
Continuous
 62
     1
370
     0
100
AcDbLine
 10
53.0261347523
 20
272.8445337765
 30
0.0
 11
52.2261347523
 21
272.8445337765
 31
0.0
  0
LINE
  5
45B
330
1F
100
AcDbEntity
  8
FLEXURES
  6
Continuous
 62
     1
370
     0
100
AcDbLine
 10
52.2261347523
 20
272.8445337765
 30
0.0
 11
52.2261347523
 21
267.7085866047
 31
0.0
  0
LINE
  5
45C
330
1F
100
AcDbEntity
  8
FLEXURES
  6
Continuous
 62
     1
370
     0
100
AcDbLine
 10
53.0261347523
 20
267.7085866047
 30
0.0
 11
52.2261347523
 21
267.7085866047
 31
0.0
  0
LINE
  5
45D
330
1F
100
AcDbEntity
  8
FLEXURES
 62
     1
100
AcDbLine
 10
44.8147229981
 20
256.7748697427
 30
0.0
 11
44.8147229981
 21
262.5771160928
 31
0.0
  0
LINE
  5
45E
330
1F
100
AcDbEntity
  8
FLEXURES
 62
     1
100
AcDbLine
 10
44.0147229981
 20
262.5771160928
 30
0.0
 11
44.8147229981
 21
262.5771160928
 31
0.0
  0
LINE
  5
45F
330
1F
100
AcDbEntity
  8
OUTLINES
100
AcDbLine
 10
52.8147229981
 20
257.1738719393
 30
0.0
 11
52.8147229981
 21
262.1738719393
 31
0.0
  0
LINE
  5
460
330
1F
100
AcDbEntity
  8
OUTLINES
100
AcDbLine
 10
52.8147229981
 20
262.1738719393
 30
0.0
 11
44.0147229981
 21
262.1738719393
 31
0.0
  0
LINE
  5
461
330
1F
100
AcDbEntity
  8
OUTLINES
100
AcDbLine
 10
61.0261347523
 20
286.7039652368
 30
0.0
 11
60.5261347523
 21
286.7039652368
 31
0.0
  0
LINE
  5
462
330
1F
100
AcDbEntity
  8
OUTLINES
  6
Continuous
370
     0
100
AcDbLine
 10
53.0261347523
 20
253.7074652369
 30
0.0
 11
53.5261347523
 21
253.7074652369
 31
0.0
  0
LINE
  5
463
330
1F
100
AcDbEntity
  8
OUTLINES
  6
Continuous
370
     0
100
AcDbLine
 10
53.0261347523
 20
286.7039652368
 30
0.0
 11
53.5261347523
 21
286.7039652368
 31
0.0
  0
LINE
  5
464
330
1F
100
AcDbEntity
  8
OUTLINES
100
AcDbLine
 10
37.3647229981
 20
229.5738719393
 30
0.0
 11
37.3647229981
 21
230.3738719393
 31
0.0
  0
LINE
  5
465
330
1F
100
AcDbEntity
  8
OUTLINES
100
AcDbLine
 10
42.6647229981
 20
229.5738719393
 30
0.0
 11
42.6647229981
 21
230.3738719393
 31
0.0
  0
LINE
  5
466
330
1F
100
AcDbEntity
  8
OUTLINES
100
AcDbLine
 10
42.6647229981
 20
230.3738719393
 30
0.0
 11
44.0147229981
 21
230.3738719393
 31
0.0
  0
LINE
  5
467
330
1F
100
AcDbEntity
  8
FLEXURES
 62
     1
100
AcDbLine
 10
35.050528125
 20
232.4738719393
 30
0.0
 11
45.0939788265
 21
232.4738719393
 31
0.0
  0
LINE
  5
468
330
1F
100
AcDbEntity
  8
OUTLINES
  6
Continuous
370
     0
100
AcDbLine
 10
36.0147229981
 20
254.0773719393
 30
0.0
 11
35.4147229981
 21
254.0773719393
 31
0.0
  0
LINE
  5
469
330
1F
100
AcDbEntity
  8
FLEXURES
  6
Continuous
 62
     1
370
     0
100
AcDbLine
 10
44.9557684185
 20
290.1738719393
 30
0.0
 11
35.8183620224
 21
290.1738719393
 31
0.0
  0
LINE
  5
46A
330
1F
100
AcDbEntity
  8
FLEXURES
 62
     1
100
AcDbLine
 10
35.4386197565
 20
257.1738719393
 30
0.0
 11
35.4386197565
 21
256.7738719393
 31
0.0
  0
LINE
  5
46B
330
1F
100
AcDbEntity
  8
FLEXURES
  6
Continuous
 62
     1
370
     0
100
AcDbLine
 10
44.9557684185
 20
290.1738719393
 30
0.0
 11
44.9557684185
 21
290.5738719393
 31
0.0
  0
LINE
  5
46C
330
1F
100
AcDbEntity
  8
OUTLINES
100
AcDbLine
 10
35.4147229981
 20
266.3703719393
 30
0.0
 11
35.4147229981
 21
265.2703719393
 31
0.0
  0
LINE
  5
46D
330
1F
100
AcDbEntity
  8
OUTLINES
100
AcDbLine
 10
44.0147229981
 20
265.2703719393
 30
0.0
 11
44.0147229981
 21
262.1738719393
 31
0.0
  0
LINE
  5
46E
330
1F
100
AcDbEntity
  8
FLEXURES
  6
Continuous
 62
     1
370
     0
100
AcDbLine
 10
45.0959477946
 20
253.5808719393
 30
0.0
 11
34.9371231959
 21
253.5808719393
 31
0.0
  0
LINE
  5
46F
330
1F
100
AcDbEntity
  8
OUTLINES
100
AcDbLine
 10
44.0147229981
 20
266.3703719393
 30
0.0
 11
44.6147229981
 21
266.3703719393
 31
0.0
  0
LINE
  5
470
330
1F
100
AcDbEntity
  8
OUTLINES
  6
Continuous
370
     0
100
AcDbLine
 10
35.4147229981
 20
254.0773719393
 30
0.0
 11
35.4147229981
 21
252.9773719393
 31
0.0
  0
LINE
  5
471
330
1F
100
AcDbEntity
  8
OUTLINES
  6
Continuous
370
     0
100
AcDbLine
 10
46.3147229981
 20
295.5738719393
 30
0.0
 11
46.3147229981
 21
296.4738719393
 31
0.0
  0
LINE
  5
472
330
1F
100
AcDbEntity
  8
FLEXURES
  6
Continuous
 62
     1
370
     0
100
AcDbLine
 10
35.050528125
 20
232.3668719393
 30
0.0
 11
35.050528125
 21
232.4738719393
 31
0.0
  0
LINE
  5
473
330
1F
100
AcDbEntity
  8
FLEXURES
  6
Continuous
 62
     1
370
     0
100
AcDbLine
 10
44.8147229981
 20
290.4193665106
 30
0.0
 11
44.8147229981
 21
295.9553136824
 31
0.0
  0
LINE
  5
474
330
1F
100
AcDbEntity
  8
FLEXURES
  6
Continuous
 62
     1
370
     0
100
AcDbLine
 10
45.0679925556
 20
265.7668719393
 30
0.0
 11
35.0513731012
 21
265.7668719393
 31
0.0
  0
LINE
  5
475
330
1F
100
AcDbEntity
  8
OUTLINES
100
AcDbLine
 10
37.3647229981
 20
229.5738719393
 30
0.0
 11
36.0147229981
 21
229.5738719393
 31
0.0
  0
LINE
  5
476
330
1F
100
AcDbEntity
  8
OUTLINES
100
AcDbLine
 10
44.6147229981
 20
286.3773719393
 30
0.0
 11
44.6147229981
 21
287.4773719393
 31
0.0
  0
LINE
  5
477
330
1F
100
AcDbEntity
  8
OUTLINES
  6
Continuous
370
     0
100
AcDbLine
 10
44.6147229981
 20
254.0773719393
 30
0.0
 11
44.6147229981
 21
252.9773719393
 31
0.0
  0
LINE
  5
478
330
1F
100
AcDbEntity
  8
OUTLINES
  6
Continuous
370
     0
100
AcDbLine
 10
36.0147229981
 20
231.8703719393
 30
0.0
 11
35.4147229981
 21
231.8703719393
 31
0.0
  0
LINE
  5
479
330
1F
100
AcDbEntity
  8
FLEXURES
 62
     1
100
AcDbLine
 10
35.0513731012
 20
265.8738719393
 30
0.0
 11
45.0679925556
 21
265.8738719393
 31
0.0
  0
LINE
  5
47A
330
1F
100
AcDbEntity
  8
FLEXURES
  6
Continuous
 62
     1
370
     0
100
AcDbLine
 10
44.0147229981
 20
295.9553136824
 30
0.0
 11
44.8147229981
 21
295.9553136824
 31
0.0
  0
LINE
  5
47B
330
1F
100
AcDbEntity
  8
OUTLINES
100
AcDbLine
 10
36.0147229981
 20
295.5738719393
 30
0.0
 11
36.0147229981
 21
287.4773719393
 31
0.0
  0
LINE
  5
47C
330
1F
100
AcDbEntity
  8
FLEXURES
  6
Continuous
 62
     1
370
     0
100
AcDbLine
 10
35.8183620224
 20
290.1738719393
 30
0.0
 11
35.8183620224
 21
290.5738719393
 31
0.0
  0
LINE
  5
47D
330
1F
100
AcDbEntity
  8
FLEXURES
  6
Continuous
 62
     1
370
     0
100
AcDbLine
 10
44.593648751
 20
262.5738719393
 30
0.0
 11
35.3893276123
 21
262.5738719393
 31
0.0
  0
LINE
  5
47E
330
1F
100
AcDbEntity
  8
FLEXURES
  6
Continuous
 62
     1
370
     0
100
AcDbLine
 10
34.9371231959
 20
253.4738719393
 30
0.0
 11
34.9371231959
 21
253.5808719393
 31
0.0
  0
LINE
  5
47F
330
1F
100
AcDbEntity
  8
OUTLINES
100
AcDbLine
 10
44.0147229981
 20
231.8703719393
 30
0.0
 11
44.0147229981
 21
230.3738719393
 31
0.0
  0
LINE
  5
480
330
1F
100
AcDbEntity
  8
OUTLINES
100
AcDbLine
 10
52.8147229981
 20
296.4738719393
 30
0.0
 11
52.8147229981
 21
290.5738719393
 31
0.0
  0
LINE
  5
481
330
1F
100
AcDbEntity
  8
FLEXURES
  6
Continuous
 62
     1
370
     0
100
AcDbLine
 10
44.9557684185
 20
290.5738719393
 30
0.0
 11
35.8183620224
 21
290.5738719393
 31
0.0
  0
LINE
  5
482
330
1F
100
AcDbEntity
  8
OUTLINES
  6
Continuous
370
     0
100
AcDbLine
 10
36.0147229981
 20
232.9703719393
 30
0.0
 11
35.4147229981
 21
232.9703719393
 31
0.0
  0
LINE
  5
483
330
1F
100
AcDbEntity
  8
FLEXURES
  6
Continuous
 62
     1
370
     0
100
AcDbLine
 10
35.3893276123
 20
262.1738719393
 30
0.0
 11
35.3893276123
 21
262.5738719393
 31
0.0
  0
LINE
  5
484
330
1F
100
AcDbEntity
  8
FLEXURES
  6
Continuous
 62
     1
370
     0
100
AcDbLine
 10
45.0939788265
 20
232.3668719393
 30
0.0
 11
45.0939788265
 21
232.4738719393
 31
0.0
  0
LINE
  5
485
330
1F
100
AcDbEntity
  8
FLEXURES
  6
Continuous
 62
     1
370
     0
100
AcDbLine
 10
45.0959477946
 20
253.4738719393
 30
0.0
 11
45.0959477946
 21
253.5808719393
 31
0.0
  0
LINE
  5
486
330
1F
100
AcDbEntity
  8
OUTLINES
  6
Continuous
370
     0
100
AcDbLine
 10
36.0147229981
 20
287.4773719393
 30
0.0
 11
35.4147229981
 21
287.4773719393
 31
0.0
  0
LINE
  5
487
330
1F
100
AcDbEntity
  8
OUTLINES
  6
Continuous
370
     0
100
AcDbLine
 10
44.0147229981
 20
231.8703719393
 30
0.0
 11
44.6147229981
 21
231.8703719393
 31
0.0
  0
LINE
  5
488
330
1F
100
AcDbEntity
  8
OUTLINES
100
AcDbLine
 10
36.0147229981
 20
286.3773719393
 30
0.0
 11
35.4147229981
 21
286.3773719393
 31
0.0
  0
LINE
  5
489
330
1F
100
AcDbEntity
  8
OUTLINES
100
AcDbLine
 10
36.0147229981
 20
266.3703719393
 30
0.0
 11
35.4147229981
 21
266.3703719393
 31
0.0
  0
LINE
  5
48A
330
1F
100
AcDbEntity
  8
OUTLINES
100
AcDbLine
 10
44.0147229981
 20
266.3703719393
 30
0.0
 11
44.0147229981
 21
286.3773719393
 31
0.0
  0
LINE
  5
48B
330
1F
100
AcDbEntity
  8
FLEXURES
  6
Continuous
 62
     1
370
     0
100
AcDbLine
 10
45.0679925556
 20
265.7668719393
 30
0.0
 11
45.0679925556
 21
265.8738719393
 31
0.0
  0
LINE
  5
48C
330
1F
100
AcDbEntity
  8
OUTLINES
100
AcDbLine
 10
44.0147229981
 20
287.4773719393
 30
0.0
 11
44.0147229981
 21
290.5738719393
 31
0.0
  0
LINE
  5
48D
330
1F
100
AcDbEntity
  8
FLEXURES
  6
Continuous
 62
     1
370
     0
100
AcDbLine
 10
45.0939788265
 20
232.3668719393
 30
0.0
 11
35.050528125
 21
232.3668719393
 31
0.0
  0
LINE
  5
48E
330
1F
100
AcDbEntity
  8
OUTLINES
100
AcDbLine
 10
36.0147229981
 20
228.6738719393
 30
0.0
 11
36.0147229981
 21
229.5738719393
 31
0.0
  0
LINE
  5
48F
330
1F
100
AcDbEntity
  8
FLEXURES
  6
Continuous
 62
     1
370
     0
100
AcDbLine
 10
44.6575502004
 20
257.1738719393
 30
0.0
 11
35.4386197565
 21
257.1738719393
 31
0.0
  0
LINE
  5
490
330
1F
100
AcDbEntity
  8
OUTLINES
100
AcDbLine
 10
44.0147229981
 20
228.6738719393
 30
0.0
 11
44.0147229981
 21
229.5738719393
 31
0.0
  0
LINE
  5
491
330
1F
100
AcDbEntity
  8
OUTLINES
100
AcDbLine
 10
35.4147229981
 20
231.8703719393
 30
0.0
 11
35.4147229981
 21
232.9703719393
 31
0.0
  0
LINE
  5
492
330
1F
100
AcDbEntity
  8
OUTLINES
100
AcDbLine
 10
44.8147229981
 20
295.5738719393
 30
0.0
 11
36.0147229981
 21
295.5738719393
 31
0.0
  0
LINE
  5
493
330
1F
100
AcDbEntity
  8
OUTLINES
100
AcDbLine
 10
52.8147229981
 20
290.5738719393
 30
0.0
 11
44.0147229981
 21
290.5738719393
 31
0.0
  0
LINE
  5
494
330
1F
100
AcDbEntity
  8
FLEXURES
  6
Continuous
 62
     1
370
     0
100
AcDbLine
 10
35.0513731012
 20
265.7668719393
 30
0.0
 11
35.0513731012
 21
265.8738719393
 31
0.0
  0
LINE
  5
495
330
1F
100
AcDbEntity
  8
OUTLINES
100
AcDbLine
 10
44.0147229981
 20
257.1738719393
 30
0.0
 11
44.0147229981
 21
254.0773719393
 31
0.0
  0
LINE
  5
496
330
1F
100
AcDbEntity
  8
FLEXURES
  6
Continuous
 62
     1
370
     0
100
AcDbLine
 10
44.6575502004
 20
256.7738719393
 30
0.0
 11
35.4386197565
 21
256.7738719393
 31
0.0
  0
LINE
  5
497
330
1F
100
AcDbEntity
  8
OUTLINES
100
AcDbLine
 10
36.0147229981
 20
230.3738719393
 30
0.0
 11
36.0147229981
 21
231.8703719393
 31
0.0
  0
LINE
  5
498
330
1F
100
AcDbEntity
  8
OUTLINES
100
AcDbLine
 10
35.4147229981
 20
287.4773719393
 30
0.0
 11
35.4147229981
 21
286.3773719393
 31
0.0
  0
LINE
  5
499
330
1F
100
AcDbEntity
  8
FLEXURES
 62
     1
100
AcDbLine
 10
34.9371231959
 20
253.4738719393
 30
0.0
 11
45.0959477946
 21
253.4738719393
 31
0.0
  0
LINE
  5
49A
330
1F
100
AcDbEntity
  8
OUTLINES
100
AcDbLine
 10
51.3147229981
 20
295.5738719393
 30
0.0
 11
46.3147229981
 21
295.5738719393
 31
0.0
  0
LINE
  5
49B
330
1F
100
AcDbEntity
  8
FLEXURES
  6
Continuous
 62
     1
370
     0
100
AcDbLine
 10
44.593648751
 20
262.1738719393
 30
0.0
 11
44.593648751
 21
262.5738719393
 31
0.0
  0
LINE
  5
49C
330
1F
100
AcDbEntity
  8
FLEXURES
  6
Continuous
 62
     1
370
     0
100
AcDbLine
 10
44.9476954721
 20
286.8738719393
 30
0.0
 11
44.9476954721
 21
286.9808719393
 31
0.0
  0
LINE
  5
49D
330
1F
100
AcDbEntity
  8
OUTLINES
100
AcDbLine
 10
44.0147229981
 20
228.6738719393
 30
0.0
 11
36.0147229981
 21
228.6738719393
 31
0.0
  0
LINE
  5
49E
330
1F
100
AcDbEntity
  8
OUTLINES
100
AcDbLine
 10
36.0147229981
 20
252.9773719393
 30
0.0
 11
35.4147229981
 21
252.9773719393
 31
0.0
  0
LINE
  5
49F
330
1F
100
AcDbEntity
  8
FLEXURES
  6
Continuous
 62
     1
370
     0
100
AcDbLine
 10
44.0147229981
 20
290.4193665106
 30
0.0
 11
44.0147229981
 21
295.9553136824
 31
0.0
  0
LINE
  5
4A0
330
1F
100
AcDbEntity
  8
OUTLINES
  6
Continuous
370
     0
100
AcDbLine
 10
44.6147229981
 20
266.3703719393
 30
0.0
 11
44.6147229981
 21
265.2703719393
 31
0.0
  0
LINE
  5
4A1
330
1F
100
AcDbEntity
  8
OUTLINES
  6
Continuous
370
     0
100
AcDbLine
 10
44.8147229981
 20
296.4738719393
 30
0.0
 11
44.8147229981
 21
295.5738719393
 31
0.0
  0
LINE
  5
4A2
330
1F
100
AcDbEntity
  8
OUTLINES
100
AcDbLine
 10
44.0147229981
 20
287.4773719393
 30
0.0
 11
44.6147229981
 21
287.4773719393
 31
0.0
  0
LINE
  5
4A3
330
1F
100
AcDbEntity
  8
FLEXURES
  6
Continuous
 62
     1
370
     0
100
AcDbLine
 10
44.6575502004
 20
256.7738719393
 30
0.0
 11
44.6575502004
 21
257.1738719393
 31
0.0
  0
LINE
  5
4A4
330
1F
100
AcDbEntity
  8
FLEXURES
  6
Continuous
 62
     1
370
     0
100
AcDbLine
 10
44.593648751
 20
262.1738719393
 30
0.0
 11
35.3893276123
 21
262.1738719393
 31
0.0
  0
LINE
  5
4A5
330
1F
100
AcDbEntity
  8
OUTLINES
100
AcDbLine
 10
44.0147229981
 20
254.0773719393
 30
0.0
 11
44.6147229981
 21
254.0773719393
 31
0.0
  0
LINE
  5
4A6
330
1F
100
AcDbEntity
  8
FLEXURES
  6
Continuous
 62
     1
370
     0
100
AcDbLine
 10
35.0199971964
 20
286.8738719393
 30
0.0
 11
35.0199971964
 21
286.9808719393
 31
0.0
  0
LINE
  5
4A7
330
1F
100
AcDbEntity
  8
FLEXURES
  6
Continuous
 62
     1
370
     0
100
AcDbLine
 10
44.9476954721
 20
286.9808719393
 30
0.0
 11
35.0199971964
 21
286.9808719393
 31
0.0
  0
LINE
  5
4A8
330
1F
100
AcDbEntity
  8
FLEXURES
 62
     1
100
AcDbLine
 10
35.0199971964
 20
286.8738719393
 30
0.0
 11
44.9476954721
 21
286.8738719393
 31
0.0
  0
LINE
  5
4A9
330
1F
100
AcDbEntity
  8
OUTLINES
100
AcDbLine
 10
42.6647229981
 20
229.5738719393
 30
0.0
 11
44.0147229981
 21
229.5738719393
 31
0.0
  0
LINE
  5
4AA
330
1F
100
AcDbEntity
  8
OUTLINES
  6
Continuous
370
     0
100
AcDbLine
 10
44.6147229981
 20
232.9703719393
 30
0.0
 11
44.6147229981
 21
231.8703719393
 31
0.0
  0
LINE
  5
4AB
330
1F
100
AcDbEntity
  8
OUTLINES
  6
Continuous
370
     0
100
AcDbLine
 10
44.0147229981
 20
265.2703719393
 30
0.0
 11
44.6147229981
 21
265.2703719393
 31
0.0
  0
LINE
  5
4AC
330
1F
100
AcDbEntity
  8
OUTLINES
  6
Continuous
370
     0
100
AcDbLine
 10
46.3147229981
 20
296.4738719393
 30
0.0
 11
44.8147229981
 21
296.4738719393
 31
0.0
  0
LINE
  5
4AD
330
1F
100
AcDbEntity
  8
OUTLINES
  6
Continuous
370
     0
100
AcDbLine
 10
36.0147229981
 20
265.2703719393
 30
0.0
 11
35.4147229981
 21
265.2703719393
 31
0.0
  0
LINE
  5
4AE
330
1F
100
AcDbEntity
  8
OUTLINES
  6
Continuous
370
     0
100
AcDbLine
 10
44.0147229981
 20
286.3773719393
 30
0.0
 11
44.6147229981
 21
286.3773719393
 31
0.0
  0
LINE
  5
4AF
330
1F
100
AcDbEntity
  8
FLEXURES
  6
Continuous
 62
     1
370
     0
100
AcDbLine
 10
44.0147229981
 20
290.4193665106
 30
0.0
 11
44.8147229981
 21
290.4193665106
 31
0.0
  0
LINE
  5
4B0
330
1F
100
AcDbEntity
  8
OUTLINES
100
AcDbLine
 10
51.3147229981
 20
295.5738719393
 30
0.0
 11
51.3147229981
 21
296.4738719393
 31
0.0
  0
LINE
  5
4B1
330
1F
100
AcDbEntity
  8
OUTLINES
100
AcDbLine
 10
91.0514889698
 20
267.4330969858
 30
0.0
 11
101.5584889698
 21
267.4330969858
 31
0.0
  0
LINE
  5
4B2
330
1F
100
AcDbEntity
  8
FLEXURES
 62
     1
100
AcDbLine
 10
97.4500095521
 20
241.91720882
 30
0.0
 11
97.8500095521
 21
241.91720882
 31
0.0
  0
LINE
  5
4B3
330
1F
100
AcDbEntity
  8
FLEXURES
 62
     1
100
AcDbLine
 10
97.8500095521
 20
251.0959832648
 30
0.0
 11
97.8500095521
 21
241.91720882
 31
0.0
  0
LINE
  5
4B4
330
1F
100
AcDbEntity
  8
FLEXURES
 62
     1
100
AcDbLine
 10
97.4500095521
 20
241.91720882
 30
0.0
 11
97.4500095521
 21
251.0959832648
 31
0.0
  0
LINE
  5
4B5
330
1F
100
AcDbEntity
  8
FLEXURES
  6
Continuous
 62
     1
370
     0
100
AcDbLine
 10
77.2500095521
 20
251.5710053159
 30
0.0
 11
77.1430095521
 21
251.5710053159
 31
0.0
  0
LINE
  5
4B6
330
1F
100
AcDbEntity
  8
FLEXURES
  6
Continuous
 62
     1
370
     0
100
AcDbLine
 10
88.8570095521
 20
241.7211475745
 30
0.0
 11
88.7500095521
 21
241.7211475745
 31
0.0
  0
LINE
  5
4B7
330
1F
100
AcDbEntity
  8
OUTLINES
100
AcDbLine
 10
114.7500095521
 20
249.1318994443
 30
0.0
 11
115.5500095521
 21
249.1318994443
 31
0.0
  0
LINE
  5
4B8
330
1F
100
AcDbEntity
  8
FLEXURES
  6
Continuous
 62
     1
370
     0
100
AcDbLine
 10
73.8332823457
 20
250.4818994443
 30
0.0
 11
73.8332950905
 21
251.2818994443
 31
0.0
  0
LINE
  5
4B9
330
1F
100
AcDbEntity
  8
OUTLINES
100
AcDbLine
 10
63.2549889697
 20
267.4330969858
 30
0.0
 11
63.2549889697
 21
259.4330969858
 31
0.0
  0
LINE
  5
4BA
330
1F
100
AcDbEntity
  8
OUTLINES
100
AcDbLine
 10
79.1584889698
 20
267.4330969858
 30
0.0
 11
89.9514889698
 21
267.4330969858
 31
0.0
  0
LINE
  5
4BB
330
1F
100
AcDbEntity
  8
FLEXURES
  6
Continuous
 62
     1
370
     0
100
AcDbLine
 10
105.3549889698
 20
258.8053405624
 30
0.0
 11
105.7549889698
 21
258.8053405624
 31
0.0
  0
LINE
  5
4BC
330
1F
100
AcDbEntity
  8
FLEXURES
 62
     1
100
AcDbLine
 10
81.8549889698
 20
258.805340563
 30
0.0
 11
81.8549889698
 21
267.9841150078
 31
0.0
  0
LINE
  5
4BD
330
1F
100
AcDbEntity
  8
FLEXURES
 62
     1
100
AcDbLine
 10
86.8549889698
 20
258.8053405631
 30
0.0
 11
86.8549889698
 21
267.9841150078
 31
0.0
  0
LINE
  5
4BE
330
1F
100
AcDbEntity
  8
FLEXURES
 62
     1
100
AcDbLine
 10
105.7549889698
 20
267.9841150078
 30
0.0
 11
105.7549889698
 21
258.8053405624
 31
0.0
  0
LINE
  5
4BF
330
1F
100
AcDbEntity
  8
OUTLINES
  6
Continuous
370
     0
100
AcDbLine
 10
67.5514889698
 20
267.4330969858
 30
0.0
 11
67.5514889698
 21
268.0330969858
 31
0.0
  0
LINE
  5
4C0
330
1F
100
AcDbEntity
  8
OUTLINES
  6
Continuous
370
     0
100
AcDbLine
 10
66.4514889698
 20
259.4330969858
 30
0.0
 11
66.4514889698
 21
258.8330969858
 31
0.0
  0
CIRCLE
  5
4C1
330
1F
100
AcDbEntity
  8
FLEXURES
 62
     1
100
AcDbCircle
 10
5.1413773968
 20
301.0039652368
 30
0.0
 40
1.500000000000013
  0
CIRCLE
  5
4C2
330
1F
100
AcDbEntity
  8
FLEXURES
 62
     1
100
AcDbCircle
 10
4.9890404846
 20
226.6239419326
 30
0.0
 40
1.499999999999996
  0
CIRCLE
  5
4C3
330
1F
100
AcDbEntity
  8
FLEXURES
 62
     1
100
AcDbCircle
 10
114.7500095521
 20
300.0720975211
 30
0.0
 40
1.499999999999992
  0
CIRCLE
  5
4C4
330
1F
100
AcDbEntity
  8
FLEXURES
 62
     1
100
AcDbCircle
 10
115.5500095522
 20
226.6239419326
 30
0.0
 40
1.499999999999992
  0
CIRCLE
  5
4C5
330
1F
100
AcDbEntity
  8
FLEXURES2
  6
Continuous
 62
     1
370
     0
100
AcDbCircle
 10
115.39767264
 20
301.0039652368
 30
0.0
 40
1.500000000000009
  0
CIRCLE
  5
4C6
330
1F
100
AcDbEntity
  8
FLEXURES2
  6
Continuous
 62
     1
370
     0
100
AcDbCircle
 10
4.9890404846
 20
226.6239419326
 30
0.0
 40
1.499999999999994
  0
CIRCLE
  5
4C7
330
1F
100
AcDbEntity
  8
FLEXURES2
  6
Continuous
 62
     1
370
     0
100
AcDbCircle
 10
5.7890404848
 20
300.0720975211
 30
0.0
 40
1.499999999999995
  0
CIRCLE
  5
4C8
330
1F
100
AcDbEntity
  8
FLEXURES2
  6
Continuous
 62
     1
370
     0
100
AcDbCircle
 10
115.5500095522
 20
226.6239419326
 30
0.0
 40
1.499999999999992
  0
ENDSEC
  0
SECTION
  2
OBJECTS
  0
DICTIONARY
  5
C
330
0
100
AcDbDictionary
281
     1
  3
ACAD_GROUP
350
D
  3
ACAD_LAYOUT
350
1A
  3
ACAD_MATERIAL
350
3B
  3
ACAD_MLEADERSTYLE
350
4CB
  3
ACAD_MLINESTYLE
350
17
  3
ACAD_PLOTSETTINGS
350
19
  3
ACAD_PLOTSTYLENAME
350
E
  3
ACAD_VISUALSTYLE
350
2A
  3
AcDbVariableDictionary
350
4C9
  0
DICTIONARY
  5
D
102
{ACAD_REACTORS
330
C
102
}
330
C
100
AcDbDictionary
281
     1
  0
DICTIONARY
  5
1A
102
{ACAD_REACTORS
330
C
102
}
330
C
100
AcDbDictionary
281
     1
  3
Layout1
350
1E
  3
Layout2
350
26
  3
Model
350
22
  0
DICTIONARY
  5
3B
102
{ACAD_REACTORS
330
C
102
}
330
C
100
AcDbDictionary
281
     1
  3
ByBlock
350
3D
  3
ByLayer
350
3C
  3
Global
350
3E
  0
DICTIONARY
  5
4CB
102
{ACAD_REACTORS
330
C
102
}
330
C
100
AcDbDictionary
281
     1
  0
DICTIONARY
  5
17
102
{ACAD_REACTORS
330
C
102
}
330
C
100
AcDbDictionary
281
     1
  3
Standard
350
18
  0
DICTIONARY
  5
19
102
{ACAD_REACTORS
330
C
102
}
330
C
100
AcDbDictionary
281
     1
  0
ACDBDICTIONARYWDFLT
  5
E
102
{ACAD_REACTORS
330
C
102
}
330
C
100
AcDbDictionary
281
     1
  3
Normal
350
F
100
AcDbDictionaryWithDefault
340
F
  0
DICTIONARY
  5
2A
102
{ACAD_REACTORS
330
C
102
}
330
C
100
AcDbDictionary
281
     1
  3
2dWireframe
350
2F
  3
3D Hidden
350
31
  3
3dWireframe
350
30
  3
Basic
350
32
  3
Brighten
350
36
  3
ColorChange
350
3A
  3
Conceptual
350
34
  3
Dim
350
35
  3
Facepattern
350
39
  3
Flat
350
2B
  3
FlatWithEdges
350
2C
  3
Gouraud
350
2D
  3
GouraudWithEdges
350
2E
  3
Linepattern
350
38
  3
Realistic
350
33
  3
Thicken
350
37
  0
DICTIONARY
  5
4C9
102
{ACAD_REACTORS
330
C
102
}
330
C
100
AcDbDictionary
281
     1
  3
DIMASSOC
350
4CE
  3
HIDETEXT
350
4CF
  3
PSOLHEIGHT
350
4CD
  3
PSOLWIDTH
350
4CC
  0
LAYOUT
  5
1E
102
{ACAD_REACTORS
330
1A
102
}
330
1A
100
AcDbPlotSettings
  1

  2
none_device
  4

  6

 40
0.0
 41
0.0
 42
0.0
 43
0.0
 44
0.0
 45
0.0
 46
0.0
 47
0.0
 48
0.0
 49
0.0
140
0.0
141
0.0
142
1.0
143
1.0
 70
   688
 72
     0
 73
     0
 74
     5
  7

 75
    16
147
1.0
148
0.0
149
0.0
100
AcDbLayout
  1
Layout1
 70
     1
 71
     1
 10
0.0
 20
0.0
 11
420.0
 21
297.0
 12
0.0
 22
0.0
 32
0.0
 14
1.0000000000E+20
 24
1.0000000000E+20
 34
1.0000000000E+20
 15
-1.0000000000E+20
 25
-1.0000000000E+20
 35
-1.0000000000E+20
146
0.0
 13
0.0
 23
0.0
 33
0.0
 16
1.0
 26
0.0
 36
0.0
 17
0.0
 27
1.0
 37
0.0
 76
     0
330
1B
  0
LAYOUT
  5
26
102
{ACAD_REACTORS
330
1A
102
}
330
1A
100
AcDbPlotSettings
  1

  2
none_device
  4

  6

 40
0.0
 41
0.0
 42
0.0
 43
0.0
 44
0.0
 45
0.0
 46
0.0
 47
0.0
 48
0.0
 49
0.0
140
0.0
141
0.0
142
1.0
143
1.0
 70
   688
 72
     0
 73
     0
 74
     5
  7

 75
    16
147
1.0
148
0.0
149
0.0
100
AcDbLayout
  1
Layout2
 70
     1
 71
     2
 10
0.0
 20
0.0
 11
0.0
 21
0.0
 12
0.0
 22
0.0
 32
0.0
 14
0.0
 24
0.0
 34
0.0
 15
0.0
 25
0.0
 35
0.0
146
0.0
 13
0.0
 23
0.0
 33
0.0
 16
1.0
 26
0.0
 36
0.0
 17
0.0
 27
1.0
 37
0.0
 76
     0
330
23
  0
LAYOUT
  5
22
102
{ACAD_REACTORS
330
1A
102
}
330
1A
100
AcDbPlotSettings
  1

  2
none_device
  4

  6

 40
0.0
 41
0.0
 42
0.0
 43
0.0
 44
0.0
 45
0.0
 46
0.0
 47
0.0
 48
0.0
 49
0.0
140
0.0
141
0.0
142
1.0
143
1.0
 70
  1712
 72
     0
 73
     0
 74
     0
  7

 75
     0
147
1.0
148
0.0
149
0.0
100
AcDbLayout
  1
Model
 70
     1
 71
     0
 10
0.0
 20
0.0
 11
406.4
 21
304.8
 12
0.0
 22
0.0
 32
0.0
 14
0.0
 24
0.0
 34
0.0
 15
406.4
 25
304.8
 35
0.0
146
0.0
 13
0.0
 23
0.0
 33
0.0
 16
1.0
 26
0.0
 36
0.0
 17
0.0
 27
1.0
 37
0.0
 76
     0
330
1F
331
29
  0
MATERIAL
  5
3D
102
{ACAD_REACTORS
330
3B
102
}
102
{ACAD_XDICTIONARY
360
4F2
102
}
330
3B
100
AcDbMaterial
  1
ByBlock
  0
MATERIAL
  5
3C
102
{ACAD_REACTORS
330
3B
102
}
102
{ACAD_XDICTIONARY
360
4F0
102
}
330
3B
100
AcDbMaterial
  1
ByLayer
  0
MATERIAL
  5
3E
102
{ACAD_REACTORS
330
3B
102
}
102
{ACAD_XDICTIONARY
360
4F4
102
}
330
3B
100
AcDbMaterial
  1
Global
  0
MLINESTYLE
  5
18
102
{ACAD_REACTORS
330
17
102
}
330
17
100
AcDbMlineStyle
  2
Standard
 70
     0
  3

 62
   256
 51
90.0
 52
90.0
 71
     2
 49
0.5
 62
   256
  6
BYLAYER
 49
-0.5
 62
   256
  6
BYLAYER
  0
ACDBPLACEHOLDER
  5
F
102
{ACAD_REACTORS
330
E
102
}
330
E
  0
VISUALSTYLE
  5
2F
102
{ACAD_REACTORS
330
2A
102
}
102
{ACAD_XDICTIONARY
360
4D8
102
}
330
2A
100
AcDbVisualStyle
  2
2dWireframe
 70
     4
 71
     0
 72
     2
 73
     0
 90
        0
 40
-0.6
 41
-30.0
 62
     5
 63
     7
 74
     1
 91
        4
 64
     7
 65
   257
 75
     1
175
     1
 42
1.0
 92
        0
 66
   257
 43
1.0
 76
     1
 77
     6
 78
     2
 67
     7
 79
     5
170
     0
171
     0
290
     0
174
     0
 93
        1
 44
0.0
173
     0
291
     0
 45
0.0
1001
ACAD
1000
AcDbSavedByObjectVersion
1070
     0
  0
VISUALSTYLE
  5
31
102
{ACAD_REACTORS
330
2A
102
}
102
{ACAD_XDICTIONARY
360
4DC
102
}
330
2A
100
AcDbVisualStyle
  2
3D Hidden
 70
     6
 71
     1
 72
     2
 73
     2
 90
        0
 40
-0.6
 41
-30.0
 62
     5
 63
     7
 74
     2
 91
        2
 64
     7
 65
   257
 75
     2
175
     1
 42
40.0
 92
        0
 66
   257
 43
1.0
 76
     1
 77
     6
 78
     2
 67
     7
 79
     3
170
     0
171
     0
290
     0
174
     0
 93
        1
 44
0.0
173
     0
291
     0
 45
0.0
1001
ACAD
1000
AcDbSavedByObjectVersion
1070
     0
  0
VISUALSTYLE
  5
30
102
{ACAD_REACTORS
330
2A
102
}
102
{ACAD_XDICTIONARY
360
4DA
102
}
330
2A
100
AcDbVisualStyle
  2
3dWireframe
 70
     5
 71
     0
 72
     2
 73
     0
 90
        0
 40
-0.6
 41
-30.0
 62
     5
 63
     7
 74
     1
 91
        4
 64
     7
 65
   257
 75
     1
175
     1
 42
1.0
 92
        0
 66
   257
 43
1.0
 76
     1
 77
     6
 78
     2
 67
     7
 79
     5
170
     0
171
     0
290
     0
174
     0
 93
        1
 44
0.0
173
     0
291
     0
 45
0.0
1001
ACAD
1000
AcDbSavedByObjectVersion
1070
     0
  0
VISUALSTYLE
  5
32
102
{ACAD_REACTORS
330
2A
102
}
102
{ACAD_XDICTIONARY
360
4DE
102
}
330
2A
100
AcDbVisualStyle
  2
Basic
 70
     7
 71
     1
 72
     0
 73
     1
 90
        0
 40
-0.6
 41
-30.0
 62
     5
 63
     7
 74
     0
 91
        4
 64
     7
 65
   257
 75
     1
175
     1
 42
1.0
 92
        8
 66
     7
 43
1.0
 76
     1
 77
     6
 78
     2
 67
     7
 79
     5
170
     0
171
     0
290
     0
174
     0
 93
        1
 44
0.0
173
     0
291
     1
 45
0.0
1001
ACAD
1000
AcDbSavedByObjectVersion
1070
     0
  0
VISUALSTYLE
  5
36
102
{ACAD_REACTORS
330
2A
102
}
102
{ACAD_XDICTIONARY
360
4E6
102
}
330
2A
100
AcDbVisualStyle
  2
Brighten
 70
    12
 71
     2
 72
     2
 73
     0
 90
        0
 40
-0.6
 41
-30.0
 62
     5
 63
     7
 74
     1
 91
        4
 64
     7
 65
   257
 75
     1
175
     1
 42
1.0
 92
        8
 66
     7
 43
1.0
 76
     1
 77
     6
 78
     2
 67
     7
 79
     5
170
     0
171
     0
290
     0
174
     0
 93
        1
 44
50.0
173
     0
291
     1
 45
0.0
1001
ACAD
1000
AcDbSavedByObjectVersion
1070
     0
  0
VISUALSTYLE
  5
3A
102
{ACAD_REACTORS
330
2A
102
}
102
{ACAD_XDICTIONARY
360
4EE
102
}
330
2A
100
AcDbVisualStyle
  2
ColorChange
 70
    16
 71
     2
 72
     2
 73
     3
 90
        0
 40
-0.6
 41
-30.0
 62
     5
 63
     8
 74
     1
 91
        4
 64
     7
 65
   257
 75
     1
175
     1
 42
1.0
 92
        8
 66
     8
 43
1.0
 76
     1
 77
     6
 78
     2
 67
     7
 79
     5
170
     0
171
     0
290
     0
174
     0
 93
        1
 44
0.0
173
     0
291
     1
 45
0.0
1001
ACAD
1000
AcDbSavedByObjectVersion
1070
     0
  0
VISUALSTYLE
  5
34
102
{ACAD_REACTORS
330
2A
102
}
102
{ACAD_XDICTIONARY
360
4E2
102
}
330
2A
100
AcDbVisualStyle
  2
Conceptual
 70
     9
 71
     3
 72
     2
 73
     0
 90
        0
 40
-0.6
 41
-30.0
 62
     5
 63
     7
 74
     2
 91
        2
 64
     7
 65
   257
 75
     1
175
     1
 42
40.0
 92
        8
 66
     7
 43
1.0
 76
     1
 77
     6
 78
     2
 67
     7
 79
     3
170
     0
171
     0
290
     0
174
     0
 93
        1
 44
0.0
173
     0
291
     0
 45
0.0
1001
ACAD
1000
AcDbSavedByObjectVersion
1070
     0
  0
VISUALSTYLE
  5
35
102
{ACAD_REACTORS
330
2A
102
}
102
{ACAD_XDICTIONARY
360
4E4
102
}
330
2A
100
AcDbVisualStyle
  2
Dim
 70
    11
 71
     2
 72
     2
 73
     0
 90
        0
 40
-0.6
 41
-30.0
 62
     5
 63
     7
 74
     1
 91
        4
 64
     7
 65
   257
 75
     1
175
     1
 42
1.0
 92
        8
 66
     7
 43
1.0
 76
     1
 77
     6
 78
     2
 67
     7
 79
     5
170
     0
171
     0
290
     0
174
     0
 93
        1
 44
-50.0
173
     0
291
     1
 45
0.0
1001
ACAD
1000
AcDbSavedByObjectVersion
1070
     0
  0
VISUALSTYLE
  5
39
102
{ACAD_REACTORS
330
2A
102
}
102
{ACAD_XDICTIONARY
360
4EC
102
}
330
2A
100
AcDbVisualStyle
  2
Facepattern
 70
    15
 71
     2
 72
     2
 73
     0
 90
        0
 40
-0.6
 41
-30.0
 62
     5
 63
     7
 74
     1
 91
        4
 64
     7
 65
   257
 75
     1
175
     1
 42
1.0
 92
        8
 66
     7
 43
1.0
 76
     1
 77
     6
 78
     2
 67
     7
 79
     5
170
     0
171
     0
290
     0
174
     0
 93
        1
 44
0.0
173
     0
291
     1
 45
0.0
1001
ACAD
1000
AcDbSavedByObjectVersion
1070
     0
  0
VISUALSTYLE
  5
2B
102
{ACAD_REACTORS
330
2A
102
}
102
{ACAD_XDICTIONARY
360
4D0
102
}
330
2A
100
AcDbVisualStyle
  2
Flat
 70
     0
 71
     2
 72
     1
 73
     1
 90
        2
 40
-0.6
 41
30.0
 62
     5
 63
     7
 74
     0
 91
        4
 64
     7
 65
   257
 75
     1
175
     1
 42
1.0
 92
        8
 66
     7
 43
1.0
 76
     1
 77
     6
 78
     2
 67
     7
 79
     5
170
     0
171
     0
290
     0
174
     0
 93
       13
 44
0.0
173
     0
291
     1
 45
0.0
1001
ACAD
1000
AcDbSavedByObjectVersion
1070
     0
  0
VISUALSTYLE
  5
2C
102
{ACAD_REACTORS
330
2A
102
}
102
{ACAD_XDICTIONARY
360
4D2
102
}
330
2A
100
AcDbVisualStyle
  2
FlatWithEdges
 70
     1
 71
     2
 72
     1
 73
     1
 90
        2
 40
-0.6
 41
30.0
 62
     5
 63
     7
 74
     1
 91
        4
 64
     7
 65
   257
 75
     1
175
     1
 42
1.0
 92
        0
 66
   257
 43
1.0
 76
     1
 77
     6
 78
     2
 67
     7
 79
     5
170
     0
171
     0
290
     0
174
     0
 93
       13
 44
0.0
173
     0
291
     1
 45
0.0
1001
ACAD
1000
AcDbSavedByObjectVersion
1070
     0
  0
VISUALSTYLE
  5
2D
102
{ACAD_REACTORS
330
2A
102
}
102
{ACAD_XDICTIONARY
360
4D4
102
}
330
2A
100
AcDbVisualStyle
  2
Gouraud
 70
     2
 71
     2
 72
     2
 73
     1
 90
        2
 40
-0.6
 41
30.0
 62
     5
 63
     7
 74
     0
 91
        4
 64
     7
 65
   257
 75
     1
175
     1
 42
1.0
 92
        0
 66
     7
 43
1.0
 76
     1
 77
     6
 78
     2
 67
     7
 79
     5
170
     0
171
     0
290
     0
174
     0
 93
       13
 44
0.0
173
     0
291
     1
 45
0.0
1001
ACAD
1000
AcDbSavedByObjectVersion
1070
     0
  0
VISUALSTYLE
  5
2E
102
{ACAD_REACTORS
330
2A
102
}
102
{ACAD_XDICTIONARY
360
4D6
102
}
330
2A
100
AcDbVisualStyle
  2
GouraudWithEdges
 70
     3
 71
     2
 72
     2
 73
     1
 90
        2
 40
-0.6
 41
30.0
 62
     5
 63
     7
 74
     1
 91
        4
 64
     7
 65
   257
 75
     1
175
     1
 42
1.0
 92
        0
 66
   257
 43
1.0
 76
     1
 77
     6
 78
     2
 67
     7
 79
     5
170
     0
171
     0
290
     0
174
     0
 93
       13
 44
0.0
173
     0
291
     1
 45
0.0
1001
ACAD
1000
AcDbSavedByObjectVersion
1070
     0
  0
VISUALSTYLE
  5
38
102
{ACAD_REACTORS
330
2A
102
}
102
{ACAD_XDICTIONARY
360
4EA
102
}
330
2A
100
AcDbVisualStyle
  2
Linepattern
 70
    14
 71
     2
 72
     2
 73
     0
 90
        0
 40
-0.6
 41
-30.0
 62
     5
 63
     7
 74
     1
 91
        4
 64
     7
 65
   257
 75
     7
175
     7
 42
1.0
 92
        8
 66
     7
 43
1.0
 76
     1
 77
     6
 78
     2
 67
     7
 79
     5
170
     0
171
     0
290
     0
174
     0
 93
        1
 44
0.0
173
     0
291
     1
 45
0.0
1001
ACAD
1000
AcDbSavedByObjectVersion
1070
     0
  0
VISUALSTYLE
  5
33
102
{ACAD_REACTORS
330
2A
102
}
102
{ACAD_XDICTIONARY
360
4E0
102
}
330
2A
100
AcDbVisualStyle
  2
Realistic
 70
     8
 71
     2
 72
     2
 73
     0
 90
        0
 40
-0.6
 41
-30.0
 62
     5
 63
     7
 74
     1
 91
        0
 64
     7
 65
   257
 75
     1
175
     1
 42
1.0
 92
        8
 66
     8
 43
1.0
 76
     1
 77
     6
 78
     2
 67
     7
 79
     5
170
     0
171
     0
290
     0
174
     0
 93
       13
 44
0.0
173
     0
291
     0
 45
0.0
1001
ACAD
1000
AcDbSavedByObjectVersion
1070
     0
  0
VISUALSTYLE
  5
37
102
{ACAD_REACTORS
330
2A
102
}
102
{ACAD_XDICTIONARY
360
4E8
102
}
330
2A
100
AcDbVisualStyle
  2
Thicken
 70
    13
 71
     2
 72
     2
 73
     0
 90
        0
 40
-0.6
 41
-30.0
 62
     5
 63
     7
 74
     1
 91
        4
 64
     7
 65
   257
 75
     1
175
     1
 42
1.0
 92
       12
 66
     7
 43
1.0
 76
     1
 77
     6
 78
     2
 67
     7
 79
     5
170
     0
171
     0
290
     0
174
     0
 93
        1
 44
0.0
173
     0
291
     1
 45
0.0
1001
ACAD
1000
AcDbSavedByObjectVersion
1070
     0
  0
DICTIONARYVAR
  5
4CE
102
{ACAD_REACTORS
330
4C9
102
}
330
4C9
100
DictionaryVariables
280
     0
  1
2
  0
DICTIONARYVAR
  5
4CF
102
{ACAD_REACTORS
330
4C9
102
}
330
4C9
100
DictionaryVariables
280
     0
  1
1
  0
DICTIONARYVAR
  5
4CD
102
{ACAD_REACTORS
330
4C9
102
}
330
4C9
100
DictionaryVariables
280
     0
  1
80.000000
  0
DICTIONARYVAR
  5
4CC
102
{ACAD_REACTORS
330
4C9
102
}
330
4C9
100
DictionaryVariables
280
     0
  1
5.000000
  0
DICTIONARY
  5
4F2
330
3D
100
AcDbDictionary
280
     1
281
     1
  3
ACAD_XREC_ROUNDTRIP
360
4F3
  0
DICTIONARY
  5
4F0
330
3C
100
AcDbDictionary
280
     1
281
     1
  3
ACAD_XREC_ROUNDTRIP
360
4F1
  0
DICTIONARY
  5
4F4
330
3E
100
AcDbDictionary
280
     1
281
     1
  3
ACAD_XREC_ROUNDTRIP
360
4F5
  0
DICTIONARY
  5
4D8
330
2F
100
AcDbDictionary
280
     1
281
     1
  3
ACAD_XREC_ROUNDTRIP
360
4D9
  0
DICTIONARY
  5
4DC
330
31
100
AcDbDictionary
280
     1
281
     1
  3
ACAD_XREC_ROUNDTRIP
360
4DD
  0
DICTIONARY
  5
4DA
330
30
100
AcDbDictionary
280
     1
281
     1
  3
ACAD_XREC_ROUNDTRIP
360
4DB
  0
DICTIONARY
  5
4DE
330
32
100
AcDbDictionary
280
     1
281
     1
  3
ACAD_XREC_ROUNDTRIP
360
4DF
  0
DICTIONARY
  5
4E6
330
36
100
AcDbDictionary
280
     1
281
     1
  3
ACAD_XREC_ROUNDTRIP
360
4E7
  0
DICTIONARY
  5
4EE
330
3A
100
AcDbDictionary
280
     1
281
     1
  3
ACAD_XREC_ROUNDTRIP
360
4EF
  0
DICTIONARY
  5
4E2
330
34
100
AcDbDictionary
280
     1
281
     1
  3
ACAD_XREC_ROUNDTRIP
360
4E3
  0
DICTIONARY
  5
4E4
330
35
100
AcDbDictionary
280
     1
281
     1
  3
ACAD_XREC_ROUNDTRIP
360
4E5
  0
DICTIONARY
  5
4EC
330
39
100
AcDbDictionary
280
     1
281
     1
  3
ACAD_XREC_ROUNDTRIP
360
4ED
  0
DICTIONARY
  5
4D0
330
2B
100
AcDbDictionary
280
     1
281
     1
  3
ACAD_XREC_ROUNDTRIP
360
4D1
  0
DICTIONARY
  5
4D2
330
2C
100
AcDbDictionary
280
     1
281
     1
  3
ACAD_XREC_ROUNDTRIP
360
4D3
  0
DICTIONARY
  5
4D4
330
2D
100
AcDbDictionary
280
     1
281
     1
  3
ACAD_XREC_ROUNDTRIP
360
4D5
  0
DICTIONARY
  5
4D6
330
2E
100
AcDbDictionary
280
     1
281
     1
  3
ACAD_XREC_ROUNDTRIP
360
4D7
  0
DICTIONARY
  5
4EA
330
38
100
AcDbDictionary
280
     1
281
     1
  3
ACAD_XREC_ROUNDTRIP
360
4EB
  0
DICTIONARY
  5
4E0
330
33
100
AcDbDictionary
280
     1
281
     1
  3
ACAD_XREC_ROUNDTRIP
360
4E1
  0
DICTIONARY
  5
4E8
330
37
100
AcDbDictionary
280
     1
281
     1
  3
ACAD_XREC_ROUNDTRIP
360
4E9
  0
XRECORD
  5
4F3
102
{ACAD_REACTORS
330
4F2
102
}
330
4F2
100
AcDbXrecord
280
     1
102
MATERIAL
148
0.0
149
0.0
149
0.0
 93
        0
 94
      127
282
     0
 72
     1
 77
     1
171
     1
175
     1
179
     1
273
     0
  0
XRECORD
  5
4F1
102
{ACAD_REACTORS
330
4F0
102
}
330
4F0
100
AcDbXrecord
280
     1
102
MATERIAL
148
0.0
149
0.0
149
0.0
 93
        0
 94
      127
282
     0
 72
     1
 77
     1
171
     1
175
     1
179
     1
273
     0
  0
XRECORD
  5
4F5
102
{ACAD_REACTORS
330
4F4
102
}
330
4F4
100
AcDbXrecord
280
     1
102
MATERIAL
148
0.0
149
0.0
149
0.0
 93
        0
 94
      127
282
     0
 72
     1
 77
     1
171
     1
175
     1
179
     1
273
     0
  0
XRECORD
  5
4D9
102
{ACAD_REACTORS
330
4D8
102
}
330
4D8
100
AcDbXrecord
280
     1
102
RTVSPropertyOp0
 70
     1
102
RTVSPropertyOp1
 70
     1
102
RTVSPropertyOp2
 70
     1
102
RTVSPropertyOp3
 70
     1
102
RTVSPropertyOp4
 70
     1
102
RTVSPropertyOp5
 70
     1
102
RTVSPropertyOp6
 70
     1
102
RTVSPropertyOp7
 70
     1
102
RTVSPropertyOp8
 70
     1
102
RTVSPropertyOp9
 70
     1
102
RTVSPropertyOp10
 70
     1
102
RTVSPropertyOp11
 70
     1
102
RTVSPropertyOp12
 70
     1
102
RTVSPropertyOp13
 70
     1
102
RTVSPropertyOp14
 70
     1
102
RTVSPropertyOp15
 70
     1
102
RTVSPropertyOp16
 70
     1
102
RTVSPropertyOp17
 70
     1
102
RTVSPropertyOp18
 70
     1
102
RTVSPropertyOp19
 70
     1
102
RTVSPropertyOp20
 70
     1
102
RTVSPropertyOp21
 70
     1
102
RTVSPropertyOp22
 70
     1
102
RTVSPropertyOp23
 70
     1
102
RTVSPropertyOp24
 70
     1
102
RTVSPropertyOp25
 70
     1
102
RTVSPropertyOp26
 70
     1
102
RTVSPropertyOp27
 70
     1
  0
XRECORD
  5
4DD
102
{ACAD_REACTORS
330
4DC
102
}
330
4DC
100
AcDbXrecord
280
     1
102
RTVSPropertyOp0
 70
     1
102
RTVSPropertyOp1
 70
     1
102
RTVSPropertyOp2
 70
     1
102
RTVSPropertyOp3
 70
     1
102
RTVSPropertyOp4
 70
     1
102
RTVSPropertyOp5
 70
     1
102
RTVSPropertyOp6
 70
     1
102
RTVSPropertyOp7
 70
     1
102
RTVSPropertyOp8
 70
     1
102
RTVSPropertyOp9
 70
     1
102
RTVSPropertyOp10
 70
     1
102
RTVSPropertyOp11
 70
     1
102
RTVSPropertyOp12
 70
     1
102
RTVSPropertyOp13
 70
     1
102
RTVSPropertyOp14
 70
     1
102
RTVSPropertyOp15
 70
     1
102
RTVSPropertyOp16
 70
     1
102
RTVSPropertyOp17
 70
     1
102
RTVSPropertyOp18
 70
     1
102
RTVSPropertyOp19
 70
     1
102
RTVSPropertyOp20
 70
     1
102
RTVSPropertyOp21
 70
     1
102
RTVSPropertyOp22
 70
     1
102
RTVSPropertyOp23
 70
     1
102
RTVSPropertyOp24
 70
     1
102
RTVSPropertyOp25
 70
     1
102
RTVSPropertyOp26
 70
     1
102
RTVSPropertyOp27
 70
     1
  0
XRECORD
  5
4DB
102
{ACAD_REACTORS
330
4DA
102
}
330
4DA
100
AcDbXrecord
280
     1
102
RTVSPropertyOp0
 70
     1
102
RTVSPropertyOp1
 70
     1
102
RTVSPropertyOp2
 70
     1
102
RTVSPropertyOp3
 70
     1
102
RTVSPropertyOp4
 70
     1
102
RTVSPropertyOp5
 70
     1
102
RTVSPropertyOp6
 70
     1
102
RTVSPropertyOp7
 70
     1
102
RTVSPropertyOp8
 70
     1
102
RTVSPropertyOp9
 70
     1
102
RTVSPropertyOp10
 70
     1
102
RTVSPropertyOp11
 70
     1
102
RTVSPropertyOp12
 70
     1
102
RTVSPropertyOp13
 70
     1
102
RTVSPropertyOp14
 70
     1
102
RTVSPropertyOp15
 70
     1
102
RTVSPropertyOp16
 70
     1
102
RTVSPropertyOp17
 70
     1
102
RTVSPropertyOp18
 70
     1
102
RTVSPropertyOp19
 70
     1
102
RTVSPropertyOp20
 70
     1
102
RTVSPropertyOp21
 70
     1
102
RTVSPropertyOp22
 70
     1
102
RTVSPropertyOp23
 70
     1
102
RTVSPropertyOp24
 70
     1
102
RTVSPropertyOp25
 70
     1
102
RTVSPropertyOp26
 70
     1
102
RTVSPropertyOp27
 70
     1
  0
XRECORD
  5
4DF
102
{ACAD_REACTORS
330
4DE
102
}
330
4DE
100
AcDbXrecord
280
     1
102
RTVSPropertyOp0
 70
     1
102
RTVSPropertyOp1
 70
     1
102
RTVSPropertyOp2
 70
     1
102
RTVSPropertyOp3
 70
     1
102
RTVSPropertyOp4
 70
     1
102
RTVSPropertyOp5
 70
     1
102
RTVSPropertyOp6
 70
     1
102
RTVSPropertyOp7
 70
     1
102
RTVSPropertyOp8
 70
     1
102
RTVSPropertyOp9
 70
     1
102
RTVSPropertyOp10
 70
     1
102
RTVSPropertyOp11
 70
     1
102
RTVSPropertyOp12
 70
     1
102
RTVSPropertyOp13
 70
     1
102
RTVSPropertyOp14
 70
     1
102
RTVSPropertyOp15
 70
     1
102
RTVSPropertyOp16
 70
     1
102
RTVSPropertyOp17
 70
     1
102
RTVSPropertyOp18
 70
     1
102
RTVSPropertyOp19
 70
     1
102
RTVSPropertyOp20
 70
     1
102
RTVSPropertyOp21
 70
     1
102
RTVSPropertyOp22
 70
     1
102
RTVSPropertyOp23
 70
     1
102
RTVSPropertyOp24
 70
     1
102
RTVSPropertyOp25
 70
     1
102
RTVSPropertyOp26
 70
     1
102
RTVSPropertyOp27
 70
     1
  0
XRECORD
  5
4E7
102
{ACAD_REACTORS
330
4E6
102
}
330
4E6
100
AcDbXrecord
280
     1
102
RTVSPropertyOp0
 70
     1
102
RTVSPropertyOp1
 70
     1
102
RTVSPropertyOp2
 70
     1
102
RTVSPropertyOp3
 70
     1
102
RTVSPropertyOp4
 70
     1
102
RTVSPropertyOp5
 70
     1
102
RTVSPropertyOp6
 70
     1
102
RTVSPropertyOp7
 70
     1
102
RTVSPropertyOp8
 70
     1
102
RTVSPropertyOp9
 70
     1
102
RTVSPropertyOp10
 70
     1
102
RTVSPropertyOp11
 70
     1
102
RTVSPropertyOp12
 70
     1
102
RTVSPropertyOp13
 70
     1
102
RTVSPropertyOp14
 70
     1
102
RTVSPropertyOp15
 70
     1
102
RTVSPropertyOp16
 70
     1
102
RTVSPropertyOp17
 70
     1
102
RTVSPropertyOp18
 70
     1
102
RTVSPropertyOp19
 70
     1
102
RTVSPropertyOp20
 70
     1
102
RTVSPropertyOp21
 70
     1
102
RTVSPropertyOp22
 70
     1
102
RTVSPropertyOp23
 70
     1
102
RTVSPropertyOp24
 70
     1
102
RTVSPropertyOp25
 70
     1
102
RTVSPropertyOp26
 70
     1
102
RTVSPropertyOp27
 70
     1
  0
XRECORD
  5
4EF
102
{ACAD_REACTORS
330
4EE
102
}
330
4EE
100
AcDbXrecord
280
     1
102
RTVSPropertyOp0
 70
     1
102
RTVSPropertyOp1
 70
     1
102
RTVSPropertyOp2
 70
     1
102
RTVSPropertyOp3
 70
     1
102
RTVSPropertyOp4
 70
     1
102
RTVSPropertyOp5
 70
     1
102
RTVSPropertyOp6
 70
     1
102
RTVSPropertyOp7
 70
     1
102
RTVSPropertyOp8
 70
     1
102
RTVSPropertyOp9
 70
     1
102
RTVSPropertyOp10
 70
     1
102
RTVSPropertyOp11
 70
     1
102
RTVSPropertyOp12
 70
     1
102
RTVSPropertyOp13
 70
     1
102
RTVSPropertyOp14
 70
     1
102
RTVSPropertyOp15
 70
     1
102
RTVSPropertyOp16
 70
     1
102
RTVSPropertyOp17
 70
     1
102
RTVSPropertyOp18
 70
     1
102
RTVSPropertyOp19
 70
     1
102
RTVSPropertyOp20
 70
     1
102
RTVSPropertyOp21
 70
     1
102
RTVSPropertyOp22
 70
     1
102
RTVSPropertyOp23
 70
     1
102
RTVSPropertyOp24
 70
     1
102
RTVSPropertyOp25
 70
     1
102
RTVSPropertyOp26
 70
     1
102
RTVSPropertyOp27
 70
     1
  0
XRECORD
  5
4E3
102
{ACAD_REACTORS
330
4E2
102
}
330
4E2
100
AcDbXrecord
280
     1
102
RTVSPropertyOp0
 70
     1
102
RTVSPropertyOp1
 70
     1
102
RTVSPropertyOp2
 70
     1
102
RTVSPropertyOp3
 70
     1
102
RTVSPropertyOp4
 70
     1
102
RTVSPropertyOp5
 70
     1
102
RTVSPropertyOp6
 70
     1
102
RTVSPropertyOp7
 70
     1
102
RTVSPropertyOp8
 70
     1
102
RTVSPropertyOp9
 70
     1
102
RTVSPropertyOp10
 70
     1
102
RTVSPropertyOp11
 70
     1
102
RTVSPropertyOp12
 70
     1
102
RTVSPropertyOp13
 70
     1
102
RTVSPropertyOp14
 70
     1
102
RTVSPropertyOp15
 70
     1
102
RTVSPropertyOp16
 70
     1
102
RTVSPropertyOp17
 70
     1
102
RTVSPropertyOp18
 70
     1
102
RTVSPropertyOp19
 70
     1
102
RTVSPropertyOp20
 70
     1
102
RTVSPropertyOp21
 70
     1
102
RTVSPropertyOp22
 70
     1
102
RTVSPropertyOp23
 70
     1
102
RTVSPropertyOp24
 70
     1
102
RTVSPropertyOp25
 70
     1
102
RTVSPropertyOp26
 70
     1
102
RTVSPropertyOp27
 70
     1
  0
XRECORD
  5
4E5
102
{ACAD_REACTORS
330
4E4
102
}
330
4E4
100
AcDbXrecord
280
     1
102
RTVSPropertyOp0
 70
     1
102
RTVSPropertyOp1
 70
     1
102
RTVSPropertyOp2
 70
     1
102
RTVSPropertyOp3
 70
     1
102
RTVSPropertyOp4
 70
     1
102
RTVSPropertyOp5
 70
     1
102
RTVSPropertyOp6
 70
     1
102
RTVSPropertyOp7
 70
     1
102
RTVSPropertyOp8
 70
     1
102
RTVSPropertyOp9
 70
     1
102
RTVSPropertyOp10
 70
     1
102
RTVSPropertyOp11
 70
     1
102
RTVSPropertyOp12
 70
     1
102
RTVSPropertyOp13
 70
     1
102
RTVSPropertyOp14
 70
     1
102
RTVSPropertyOp15
 70
     1
102
RTVSPropertyOp16
 70
     1
102
RTVSPropertyOp17
 70
     1
102
RTVSPropertyOp18
 70
     1
102
RTVSPropertyOp19
 70
     1
102
RTVSPropertyOp20
 70
     1
102
RTVSPropertyOp21
 70
     1
102
RTVSPropertyOp22
 70
     1
102
RTVSPropertyOp23
 70
     1
102
RTVSPropertyOp24
 70
     1
102
RTVSPropertyOp25
 70
     1
102
RTVSPropertyOp26
 70
     1
102
RTVSPropertyOp27
 70
     1
  0
XRECORD
  5
4ED
102
{ACAD_REACTORS
330
4EC
102
}
330
4EC
100
AcDbXrecord
280
     1
102
RTVSPropertyOp0
 70
     1
102
RTVSPropertyOp1
 70
     1
102
RTVSPropertyOp2
 70
     1
102
RTVSPropertyOp3
 70
     1
102
RTVSPropertyOp4
 70
     1
102
RTVSPropertyOp5
 70
     1
102
RTVSPropertyOp6
 70
     1
102
RTVSPropertyOp7
 70
     1
102
RTVSPropertyOp8
 70
     1
102
RTVSPropertyOp9
 70
     1
102
RTVSPropertyOp10
 70
     1
102
RTVSPropertyOp11
 70
     1
102
RTVSPropertyOp12
 70
     1
102
RTVSPropertyOp13
 70
     1
102
RTVSPropertyOp14
 70
     1
102
RTVSPropertyOp15
 70
     1
102
RTVSPropertyOp16
 70
     1
102
RTVSPropertyOp17
 70
     1
102
RTVSPropertyOp18
 70
     1
102
RTVSPropertyOp19
 70
     1
102
RTVSPropertyOp20
 70
     1
102
RTVSPropertyOp21
 70
     1
102
RTVSPropertyOp22
 70
     1
102
RTVSPropertyOp23
 70
     1
102
RTVSPropertyOp24
 70
     1
102
RTVSPropertyOp25
 70
     1
102
RTVSPropertyOp26
 70
     1
102
RTVSPropertyOp27
 70
     1
  0
XRECORD
  5
4D1
102
{ACAD_REACTORS
330
4D0
102
}
330
4D0
100
AcDbXrecord
280
     1
102
RTVSPropertyOp0
 70
     1
102
RTVSPropertyOp1
 70
     1
102
RTVSPropertyOp2
 70
     1
102
RTVSPropertyOp3
 70
     1
102
RTVSPropertyOp4
 70
     1
102
RTVSPropertyOp5
 70
     1
102
RTVSPropertyOp6
 70
     1
102
RTVSPropertyOp7
 70
     1
102
RTVSPropertyOp8
 70
     1
102
RTVSPropertyOp9
 70
     1
102
RTVSPropertyOp10
 70
     1
102
RTVSPropertyOp11
 70
     1
102
RTVSPropertyOp12
 70
     1
102
RTVSPropertyOp13
 70
     1
102
RTVSPropertyOp14
 70
     1
102
RTVSPropertyOp15
 70
     1
102
RTVSPropertyOp16
 70
     1
102
RTVSPropertyOp17
 70
     1
102
RTVSPropertyOp18
 70
     1
102
RTVSPropertyOp19
 70
     1
102
RTVSPropertyOp20
 70
     1
102
RTVSPropertyOp21
 70
     1
102
RTVSPropertyOp22
 70
     1
102
RTVSPropertyOp23
 70
     1
102
RTVSPropertyOp24
 70
     1
102
RTVSPropertyOp25
 70
     1
102
RTVSPropertyOp26
 70
     1
102
RTVSPropertyOp27
 70
     1
  0
XRECORD
  5
4D3
102
{ACAD_REACTORS
330
4D2
102
}
330
4D2
100
AcDbXrecord
280
     1
102
RTVSPropertyOp0
 70
     1
102
RTVSPropertyOp1
 70
     1
102
RTVSPropertyOp2
 70
     1
102
RTVSPropertyOp3
 70
     1
102
RTVSPropertyOp4
 70
     1
102
RTVSPropertyOp5
 70
     1
102
RTVSPropertyOp6
 70
     1
102
RTVSPropertyOp7
 70
     1
102
RTVSPropertyOp8
 70
     1
102
RTVSPropertyOp9
 70
     1
102
RTVSPropertyOp10
 70
     1
102
RTVSPropertyOp11
 70
     1
102
RTVSPropertyOp12
 70
     1
102
RTVSPropertyOp13
 70
     1
102
RTVSPropertyOp14
 70
     1
102
RTVSPropertyOp15
 70
     1
102
RTVSPropertyOp16
 70
     1
102
RTVSPropertyOp17
 70
     1
102
RTVSPropertyOp18
 70
     1
102
RTVSPropertyOp19
 70
     1
102
RTVSPropertyOp20
 70
     1
102
RTVSPropertyOp21
 70
     1
102
RTVSPropertyOp22
 70
     1
102
RTVSPropertyOp23
 70
     1
102
RTVSPropertyOp24
 70
     1
102
RTVSPropertyOp25
 70
     1
102
RTVSPropertyOp26
 70
     1
102
RTVSPropertyOp27
 70
     1
  0
XRECORD
  5
4D5
102
{ACAD_REACTORS
330
4D4
102
}
330
4D4
100
AcDbXrecord
280
     1
102
RTVSPropertyOp0
 70
     1
102
RTVSPropertyOp1
 70
     1
102
RTVSPropertyOp2
 70
     1
102
RTVSPropertyOp3
 70
     1
102
RTVSPropertyOp4
 70
     1
102
RTVSPropertyOp5
 70
     1
102
RTVSPropertyOp6
 70
     1
102
RTVSPropertyOp7
 70
     1
102
RTVSPropertyOp8
 70
     1
102
RTVSPropertyOp9
 70
     1
102
RTVSPropertyOp10
 70
     1
102
RTVSPropertyOp11
 70
     1
102
RTVSPropertyOp12
 70
     1
102
RTVSPropertyOp13
 70
     1
102
RTVSPropertyOp14
 70
     1
102
RTVSPropertyOp15
 70
     1
102
RTVSPropertyOp16
 70
     1
102
RTVSPropertyOp17
 70
     1
102
RTVSPropertyOp18
 70
     1
102
RTVSPropertyOp19
 70
     1
102
RTVSPropertyOp20
 70
     1
102
RTVSPropertyOp21
 70
     1
102
RTVSPropertyOp22
 70
     1
102
RTVSPropertyOp23
 70
     1
102
RTVSPropertyOp24
 70
     1
102
RTVSPropertyOp25
 70
     1
102
RTVSPropertyOp26
 70
     1
102
RTVSPropertyOp27
 70
     1
  0
XRECORD
  5
4D7
102
{ACAD_REACTORS
330
4D6
102
}
330
4D6
100
AcDbXrecord
280
     1
102
RTVSPropertyOp0
 70
     1
102
RTVSPropertyOp1
 70
     1
102
RTVSPropertyOp2
 70
     1
102
RTVSPropertyOp3
 70
     1
102
RTVSPropertyOp4
 70
     1
102
RTVSPropertyOp5
 70
     1
102
RTVSPropertyOp6
 70
     1
102
RTVSPropertyOp7
 70
     1
102
RTVSPropertyOp8
 70
     1
102
RTVSPropertyOp9
 70
     1
102
RTVSPropertyOp10
 70
     1
102
RTVSPropertyOp11
 70
     1
102
RTVSPropertyOp12
 70
     1
102
RTVSPropertyOp13
 70
     1
102
RTVSPropertyOp14
 70
     1
102
RTVSPropertyOp15
 70
     1
102
RTVSPropertyOp16
 70
     1
102
RTVSPropertyOp17
 70
     1
102
RTVSPropertyOp18
 70
     1
102
RTVSPropertyOp19
 70
     1
102
RTVSPropertyOp20
 70
     1
102
RTVSPropertyOp21
 70
     1
102
RTVSPropertyOp22
 70
     1
102
RTVSPropertyOp23
 70
     1
102
RTVSPropertyOp24
 70
     1
102
RTVSPropertyOp25
 70
     1
102
RTVSPropertyOp26
 70
     1
102
RTVSPropertyOp27
 70
     1
  0
XRECORD
  5
4EB
102
{ACAD_REACTORS
330
4EA
102
}
330
4EA
100
AcDbXrecord
280
     1
102
RTVSPropertyOp0
 70
     1
102
RTVSPropertyOp1
 70
     1
102
RTVSPropertyOp2
 70
     1
102
RTVSPropertyOp3
 70
     1
102
RTVSPropertyOp4
 70
     1
102
RTVSPropertyOp5
 70
     1
102
RTVSPropertyOp6
 70
     1
102
RTVSPropertyOp7
 70
     1
102
RTVSPropertyOp8
 70
     1
102
RTVSPropertyOp9
 70
     1
102
RTVSPropertyOp10
 70
     1
102
RTVSPropertyOp11
 70
     1
102
RTVSPropertyOp12
 70
     1
102
RTVSPropertyOp13
 70
     1
102
RTVSPropertyOp14
 70
     1
102
RTVSPropertyOp15
 70
     1
102
RTVSPropertyOp16
 70
     1
102
RTVSPropertyOp17
 70
     1
102
RTVSPropertyOp18
 70
     1
102
RTVSPropertyOp19
 70
     1
102
RTVSPropertyOp20
 70
     1
102
RTVSPropertyOp21
 70
     1
102
RTVSPropertyOp22
 70
     1
102
RTVSPropertyOp23
 70
     1
102
RTVSPropertyOp24
 70
     1
102
RTVSPropertyOp25
 70
     1
102
RTVSPropertyOp26
 70
     1
102
RTVSPropertyOp27
 70
     1
  0
XRECORD
  5
4E1
102
{ACAD_REACTORS
330
4E0
102
}
330
4E0
100
AcDbXrecord
280
     1
102
RTVSPropertyOp0
 70
     1
102
RTVSPropertyOp1
 70
     1
102
RTVSPropertyOp2
 70
     1
102
RTVSPropertyOp3
 70
     1
102
RTVSPropertyOp4
 70
     1
102
RTVSPropertyOp5
 70
     1
102
RTVSPropertyOp6
 70
     1
102
RTVSPropertyOp7
 70
     1
102
RTVSPropertyOp8
 70
     1
102
RTVSPropertyOp9
 70
     1
102
RTVSPropertyOp10
 70
     1
102
RTVSPropertyOp11
 70
     1
102
RTVSPropertyOp12
 70
     1
102
RTVSPropertyOp13
 70
     1
102
RTVSPropertyOp14
 70
     1
102
RTVSPropertyOp15
 70
     1
102
RTVSPropertyOp16
 70
     1
102
RTVSPropertyOp17
 70
     1
102
RTVSPropertyOp18
 70
     1
102
RTVSPropertyOp19
 70
     1
102
RTVSPropertyOp20
 70
     1
102
RTVSPropertyOp21
 70
     1
102
RTVSPropertyOp22
 70
     1
102
RTVSPropertyOp23
 70
     1
102
RTVSPropertyOp24
 70
     1
102
RTVSPropertyOp25
 70
     1
102
RTVSPropertyOp26
 70
     1
102
RTVSPropertyOp27
 70
     1
  0
XRECORD
  5
4E9
102
{ACAD_REACTORS
330
4E8
102
}
330
4E8
100
AcDbXrecord
280
     1
102
RTVSPropertyOp0
 70
     1
102
RTVSPropertyOp1
 70
     1
102
RTVSPropertyOp2
 70
     1
102
RTVSPropertyOp3
 70
     1
102
RTVSPropertyOp4
 70
     1
102
RTVSPropertyOp5
 70
     1
102
RTVSPropertyOp6
 70
     1
102
RTVSPropertyOp7
 70
     1
102
RTVSPropertyOp8
 70
     1
102
RTVSPropertyOp9
 70
     1
102
RTVSPropertyOp10
 70
     1
102
RTVSPropertyOp11
 70
     1
102
RTVSPropertyOp12
 70
     1
102
RTVSPropertyOp13
 70
     1
102
RTVSPropertyOp14
 70
     1
102
RTVSPropertyOp15
 70
     1
102
RTVSPropertyOp16
 70
     1
102
RTVSPropertyOp17
 70
     1
102
RTVSPropertyOp18
 70
     1
102
RTVSPropertyOp19
 70
     1
102
RTVSPropertyOp20
 70
     1
102
RTVSPropertyOp21
 70
     1
102
RTVSPropertyOp22
 70
     1
102
RTVSPropertyOp23
 70
     1
102
RTVSPropertyOp24
 70
     1
102
RTVSPropertyOp25
 70
     1
102
RTVSPropertyOp26
 70
     1
102
RTVSPropertyOp27
 70
     1
  0
ENDSEC
  0
EOF
