  0
SECTION
  2
HEADER
  9
$ACADVER
  1
AC1012
  9
$DWGCODEPAGE
  3
ansi_1252
  9
$INSBASE
 10
0.0
 20
0.0
 30
0.0
  9
$EXTMIN
 10
0.0
 20
0.0
 30
0.0
  9
$EXTMAX
 10
406.4
 20
304.8
 30
0.0
  9
$LIMMIN
 10
0.0
 20
0.0
  9
$LIMMAX
 10
0.0
 20
0.0
  9
$ORTHOMODE
 70
         0
  9
$REGENMODE
 70
         1
  9
$FILLMODE
 70
         1
  9
$QTEXTMODE
 70
         0
  9
$MIRRTEXT
 70
         1
  9
$DRAGMODE
 70
         2
  9
$LTSCALE
 40
1.0
  9
$OSMODE
 70
         0
  9
$ATTMODE
 70
         1
  9
$TEXTSIZE
 40
6.35
  9
$TRACEWID
 40
0.05
  9
$TEXTSTYLE
  7
STANDARD
  9
$CLAYER
  8
0
  9
$CELTYPE
  6
CONTINUOUS
  9
$CECOLOR
 62
       256
  9
$CELTSCALE
 40
1.0
  9
$DELOBJ
 70
         1
  9
$DISPSILH
 70
         0
  9
$DIMSCALE
 40
1.0
  9
$DIMASZ
 40
1.5919448204E+303
  9
$DIMEXO
 40
0.0
  9
$DIMDLI
 40
0.38
  9
$DIMRND
 40
0.0
  9
$DIMDLE
 40
0.0
  9
$DIMEXE
 40
0.18
  9
$DIMTP
 40
0.0
  9
$DIMTM
 40
0.0
  9
$DIMTXT
 40
6.35
  9
$DIMCEN
 40
0.09
  9
$DIMTSZ
 40
0.0
  9
$DIMTOL
 70
         0
  9
$DIMLIM
 70
         0
  9
$DIMTIH
 70
         1
  9
$DIMTOH
 70
         1
  9
$DIMSE1
 70
         0
  9
$DIMSE2
 70
         0
  9
$DIMTAD
 70
         1
  9
$DIMZIN
 70
         0
  9
$DIMBLK
  1

  9
$DIMASO
 70
         1
  9
$DIMSHO
 70
         1
  9
$DIMPOST
  1

  9
$DIMAPOST
  1

  9
$DIMALT
 70
         0
  9
$DIMALTD
 70
         2
  9
$DIMALTF
 40
0.0394
  9
$DIMLFAC
 40
1.0
  9
$DIMTOFL
 70
         0
  9
$DIMTVP
 40
0.0
  9
$DIMTIX
 70
         0
  9
$DIMSOXD
 70
         0
  9
$DIMSAH
 70
         0
  9
$DIMBLK1
  1

  9
$DIMBLK2
  1

  9
$DIMSTYLE
  2
STANDARD
  9
$DIMCLRD
 70
         0
  9
$DIMCLRE
 70
         0
  9
$DIMCLRT
 70
         0
  9
$DIMTFAC
 40
1.0
  9
$DIMGAP
 40
0.0
  9
$DIMJUST
 70
         0
  9
$DIMSD1
 70
         0
  9
$DIMSD2
 70
         0
  9
$DIMTOLJ
 70
         1
  9
$DIMTZIN
 70
         0
  9
$DIMALTZ
 70
         0
  9
$DIMALTTZ
 70
         0
  9
$DIMFIT
 70
         3
  9
$DIMUPT
 70
         0
  9
$DIMUNIT
 70
         2
  9
$DIMDEC
 70
         4
  9
$DIMTDEC
 70
         4
  9
$DIMALTU
 70
         2
  9
$DIMALTTD
 70
         2
  9
$DIMTXSTY
  7
STANDARD
  9
$DIMAUNIT
 70
         0
  9
$LUNITS
 70
         2
  9
$LUPREC
 70
         2
  9
$SKETCHINC
 40
0.1
  9
$FILLETRAD
 40
0.0
  9
$AUNITS
 70
         0
  9
$AUPREC
 70
         2
  9
$MENU
  1
acad
  9
$ELEVATION
 40
0.0
  9
$PELEVATION
 40
0.0
  9
$THICKNESS
 40
0.0
  9
$LIMCHECK
 70
         0
  9
$BLIPMODE
 70
         1
  9
$CHAMFERA
 40
0.0
  9
$CHAMFERB
 40
0.0
  9
$CHAMFERC
 40
0.0
  9
$CHAMFERD
 40
0.0
  9
$SKPOLY
 70
         0
  9
$TDCREATE
 40
0.000000000
  9
$TDUPDATE
 40
0.000000000
  9
$TDINDWG
 40
0.0000000000
  9
$TDUSRTIMER
 40
0.0000000000
  9
$USRTIMER
 70
         1
  9
$ANGBASE
 50
0.0
  9
$ANGDIR
 70
         0
  9
$PDMODE
 70
         0
  9
$PDSIZE
 40
-1.0
  9
$PLINEWID
 40
0.0
  9
$COORDS
 70
         0
  9
$SPLFRAME
 70
         0
  9
$SPLINETYPE
 70
         6
  9
$SPLINESEGS
 70
         8
  9
$ATTDIA
 70
         0
  9
$ATTREQ
 70
         1
  9
$HANDLING
 70
         1
  9
$HANDSEED
  5
1FD
  9
$SURFTAB1
 70
         6
  9
$SURFTAB2
 70
         6
  9
$SURFTYPE
 70
         6
  9
$SURFU
 70
         6
  9
$SURFV
 70
         6
  9
$UCSNAME
  2

  9
$UCSORG
 10
0.0
 20
0.0
 30
0.0
  9
$UCSXDIR
 10
1.0
 20
0.0
 30
0.0
  9
$UCSYDIR
 10
0.0
 20
1.0
 30
0.0
  9
$PUCSNAME
  2

  9
$PUCSORG
 10
0.0
 20
0.0
 30
0.0
  9
$PUCSXDIR
 10
1.0
 20
0.0
 30
0.0
  9
$PUCSYDIR
 10
0.0
 20
1.0
 30
0.0
  9
$USERI1
 70
         0
  9
$USERI2
 70
         0
  9
$USERI3
 70
         0
  9
$USERI4
 70
         0
  9
$USERI5
 70
         0
  9
$USERR1
 40
0.0
  9
$USERR2
 40
0.0
  9
$USERR3
 40
0.0
  9
$USERR4
 40
0.0
  9
$USERR5
 40
0.0
  9
$WORLDVIEW
 70
         1
  9
$SHADEDGE
 70
         3
  9
$SHADEDIF
 70
        70
  9
$TILEMODE
 70
         1
  9
$MAXACTVP
 70
        16
  9
$PINSBASE
 10
0.0
 20
0.0
 30
0.0
  9
$PLIMCHECK
 70
         0
  9
$PEXTMIN
 10
1.0000000000E+20
 20
1.0000000000E+20
 30
1.0000000000E+20
  9
$PEXTMAX
 10
-1.0000000000E+20
 20
-1.0000000000E+20
 30
-1.0000000000E+20
  9
$PLIMMIN
 10
0.0
 20
0.0
  9
$PLIMMAX
 10
12.0
 20
9.0
  9
$UNITMODE
 70
         0
  9
$VISRETAIN
 70
         0
  9
$PLINEGEN
 70
         1
  9
$PSLTSCALE
 70
         1
  9
$TREEDEPTH
 70
      3020
  9
$PICKSTYLE
 70
         1
  9
$CMLSTYLE
  2
STANDARD
  9
$CMLJUST
 70
         0
  9
$CMLSCALE
 40
1.0
  9
$SAVEIMAGES
 70
         0
  0
ENDSEC
  0
SECTION
  2
CLASSES
  0
CLASS
  1
LWPOLYLINE
  2
AcDbPolyline
  3
"AutoCAD"
 90
    32768
280
         0
281
         1
  0
CLASS
  1
IMAGE
  2
AcDbRasterImage
  3
ISM
 90
    32895
280
         0
281
         1
  0
CLASS
  1
OLE2FRAME
  2
AcDbOle2Frame
  3
""
 90
    32768
280
         0
281
         1
  0
CLASS
  1
HATCH
  2
AcDbHatch
  3
"ACAD_SEDONA"
 90
    32768
280
         0
281
         1
  0
CLASS
  1
DICTIONARYVAR
  2
AcDbDictionaryVar
  3
"AutoCAD"
 90
    32768
280
         0
281
         0
  0
CLASS
  1
RASTERVARIABLES
  2
AcDbRasterVariables
  3
ISM
 90
    32768
280
         0
281
         0
  0
CLASS
  1
IMAGEDEF
  2
AcDbRasterImageDef
  3
ISM
 90
    32768
280
         0
281
         0
  0
CLASS
  1
IMAGEDEF_REACTOR
  2
AcDbRasterImageDefReactor
  3
ISM
 90
    32769
280
         0
281
         0
  0
CLASS
  1
IDBUFFER
  2
AcDbIdBuffer
  3
"Acad"
 90
    32768
280
         0
281
         0
  0
CLASS
  1
SPATIAL_FILTER
  2
AcDbSpatialFilter
  3
"Acad"
 90
    32768
280
         0
281
         0
  0
CLASS
  1
XRECORD
  2
AcDbXrecord
  3
"<Built In>"
 90
    32768
280
         0
281
         0
  0
CLASS
  1
SORTENTSTABLE
  2
AcDbSortentsTable
  3
"AutoCAD"
 90
    32768
280
         0
281
         0
  0
CLASS
  1
LAYER_INDEX
  2
AcDbLayerIndex
  3
"Acad"
 90
    32768
280
         0
281
         0
  0
CLASS
  1
SPATIAL_INDEX
  2
AcDbSpatialIndex
  3
"Acad"
 90
    32768
280
         0
281
         0
  0
CLASS
  1
OBJECT_PTR
  2
CAseDLPNTableRecord
  3
"ASE-LPNTableRecord"
 90
    32769
280
         0
281
         0
  0
CLASS
  1
LAYOUT
  2
AcDbLayout
  3
"AutoCAD 2000"
 90
    32768
280
         0
281
         0
  0
CLASS
  1
PLOTSETTINGS
  2
AcDbPlotSettings
  3
"AutoCAD 2000"
 90
    32768
280
         0
281
         0
  0
CLASS
  1
ACDBDICTIONARYWDFLT
  2
AcDbDictionaryWithDefault
  3
"AutoCAD 2000"
 90
    32768
280
         0
281
         0
  0
CLASS
  1
ACDBPLACEHOLDER
  2
AcDbPlaceHolder
  3
"AutoCAD 2000"
 90
    32768
280
         0
281
         0
  0
CLASS
  1
VBA_PROJECT
  2
AcDbVbaProject
  3
"acadvba"
 90
    32768
280
         0
281
         0
  0
CLASS
  1
WIPEOUT
  2
AcDbWipeout
  3
WipeOut|AutoCAD Express Tool|expresstools@autodesk.com
 90
    32895
280
         0
281
         1
  0
CLASS
  1
WIPEOUTVARIABLES
  2
AcDbWipeoutVariables
  3
WipeOut|AutoCAD Express Tool|expresstools@autodesk.com
 90
    32768
280
         0
281
         0
  0
CLASS
  1
RTEXT
  2
RText
  3
RText|AutoCAD Express Tool|expresstools@autodesk.com
 90
    32768
280
         0
281
         1
  0
CLASS
  1
ARCALIGNEDTEXT
  2
AcDbArcAlignedText
  3
ATEXT|AutoCAD Express Tool|expresstools@autodesk.com
 90
    32768
280
         0
281
         1
  0
ENDSEC
  0
SECTION
  2
TABLES
  0
TABLE
  2
VPORT
  5
7
100
AcDbSymbolTable
 70
         1
  0
VPORT
  5
15
100
AcDbSymbolTableRecord
100
AcDbViewportTableRecord
  2
*ACTIVE
 70
         0
 10
0.0
 20
0.0
 11
1.0
 21
1.0
 12
203.2
 22
152.4
 13
0.0
 23
0.0
 14
1.0
 24
1.0
 15
0.0
 25
0.0
 16
0.0
 26
0.0
 36
1.0
 17
0.0
 27
0.0
 37
0.0
 40
304.8
 41
0.75
 42
50.0
 43
0.0
 44
0.0
 50
0.0
 51
0.0
 71
         0
 72
      2000
 73
         1
 74
         1
 75
         0
 76
         0
 77
         0
 78
         0
  0
ENDTAB
  0
TABLE
  2
LTYPE
  5
4
100
AcDbSymbolTable
 70
         8
  0
LTYPE
  5
11
100
AcDbSymbolTableRecord
100
AcDbLinetypeTableRecord
  2
BYBLOCK
 70
        64
  3

 72
        65
 73
         0
 40
0.0
  0
LTYPE
  5
12
100
AcDbSymbolTableRecord
100
AcDbLinetypeTableRecord
  2
BYLAYER
 70
        64
  3

 72
        65
 73
         0
 40
0.0
  0
LTYPE
  5
13
100
AcDbSymbolTableRecord
100
AcDbLinetypeTableRecord
  2
CONTINUOUS
 70
        64
  3
Solid line
 72
        65
 73
         0
 40
0.0
  0
LTYPE
  5
1D
100
AcDbSymbolTableRecord
100
AcDbLinetypeTableRecord
  2
HIDDEN
 70
        64
  3
Hidden __ __ __ __ __ __ __ __ __ __ __ __ __ __
 72
        65
 73
         2
 40
1.905
 49
1.27
 74
         0
 49
-0.635
 74
         0
  0
LTYPE
  5
1E
100
AcDbSymbolTableRecord
100
AcDbLinetypeTableRecord
  2
PHANTOM
 70
        64
  3
Phantom ______  __  __  ______  __  __  ______
 72
        65
 73
         6
 40
12.7
 49
6.35
 74
         0
 49
-1.27
 74
         0
 49
1.27
 74
         0
 49
-1.27
 74
         0
 49
1.27
 74
         0
 49
-1.27
 74
         0
  0
LTYPE
  5
1F
100
AcDbSymbolTableRecord
100
AcDbLinetypeTableRecord
  2
CENTER
 70
        64
  3
Center ____ _ ____ _ ____ _ ____ _ ____ _ ____
 72
        65
 73
         4
 40
10.16
 49
6.35
 74
         0
 49
-1.27
 74
         0
 49
1.27
 74
         0
 49
-1.27
 74
         0
  0
LTYPE
  5
20
100
AcDbSymbolTableRecord
100
AcDbLinetypeTableRecord
  2
CENTERX2
 70
        64
  3
Center (2x) ________  __  ________  __  _____
 72
        65
 73
         4
 40
20.32
 49
12.7
 74
         0
 49
-2.54
 74
         0
 49
2.54
 74
         0
 49
-2.54
 74
         0
  0
LTYPE
  5
21
100
AcDbSymbolTableRecord
100
AcDbLinetypeTableRecord
  2
DOT2
 70
        64
  3
Dot (.5x) ........................................
 72
        65
 73
         2
 40
0.635
 49
0.0
 74
         0
 49
-0.635
 74
         0
  0
ENDTAB
  0
TABLE
  2
LAYER
  5
2
100
AcDbSymbolTable
 70
         7
  0
LAYER
  5
14
100
AcDbSymbolTableRecord
100
AcDbLayerTableRecord
  2
0
 70
         0
 62
         7
  6
CONTINUOUS
  0
LAYER
  5
23
100
AcDbSymbolTableRecord
100
AcDbLayerTableRecord
  2
DEFPOINTS
 70
         0
 62
         7
  6
CONTINUOUS
  0
LAYER
  5
24
100
AcDbSymbolTableRecord
100
AcDbLayerTableRecord
  2
OUTLINES
 70
         0
 62
         7
  6
CONTINUOUS
  0
LAYER
  5
25
100
AcDbSymbolTableRecord
100
AcDbLayerTableRecord
  2
FLEXURES
 70
         0
 62
         1
  6
CONTINUOUS
  0
LAYER
  5
26
100
AcDbSymbolTableRecord
100
AcDbLayerTableRecord
  2
EXTENTS
 70
         0
 62
         5
  6
CONTINUOUS
  0
LAYER
  5
27
100
AcDbSymbolTableRecord
100
AcDbLayerTableRecord
  2
2_MIL_POLYMER
 70
         0
 62
         3
  6
CONTINUOUS
  0
LAYER
  5
28
100
AcDbSymbolTableRecord
100
AcDbLayerTableRecord
  2
3_MIL_POLYMER
 70
         0
 62
         6
  6
CONTINUOUS
  0
ENDTAB
  0
TABLE
  2
STYLE
  5
3
100
AcDbSymbolTable
 70
         1
  0
STYLE
  5
17
100
AcDbSymbolTableRecord
100
AcDbTextStyleTableRecord
  2
STANDARD
 70
         0
 40
0.0
 41
1.0
 50
0.0
 71
         0
 42
0.0
  3
txt
  4

  0
ENDTAB
  0
TABLE
  2
VIEW
  5
5
100
AcDbSymbolTable
 70
         0
  0
ENDTAB
  0
TABLE
  2
UCS
  5
6
100
AcDbSymbolTable
 70
         0
  0
ENDTAB
  0
TABLE
  2
APPID
  5
8
100
AcDbSymbolTable
 70
         1
  0
APPID
  5
16
100
AcDbSymbolTableRecord
100
AcDbRegAppTableRecord
  2
ACAD
 70
         0
  0
ENDTAB
  0
TABLE
  2
DIMSTYLE
  5
9
100
AcDbSymbolTable
 70
         1
  0
DIMSTYLE
105
18
100
AcDbSymbolTableRecord
100
AcDbDimStyleTableRecord
  2
STANDARD
 70
         0
  3

  4

  5

  6

  7

 40
1.0
 41
0.18
 42
0.0625
 43
0.38
 44
0.18
 45
0.0
 46
0.0
 47
0.0
 48
0.0
 71
         0
 72
         0
 73
         1
 74
         1
 75
         0
 76
         0
 77
         0
 78
         0
140
0.18
141
0.09
142
0.0
143
25.4
144
1.0
145
0.0
146
1.0
147
0.09
170
         0
171
         2
172
         0
173
         0
174
         0
175
         0
176
         0
177
         0
178
         0
270
         2
271
         4
272
         4
273
         2
274
         2
275
         0
280
         0
281
         0
282
         0
283
         1
284
         0
285
         0
286
         0
287
         3
288
         0
340
17
  0
ENDTAB
  0
TABLE
  2
BLOCK_RECORD
  5
1
100
AcDbSymbolTable
 70
         0
  0
BLOCK_RECORD
  5
A
100
AcDbSymbolTableRecord
100
AcDbBlockTableRecord
  2
*MODEL_SPACE
  0
BLOCK_RECORD
  5
B
100
AcDbSymbolTableRecord
100
AcDbBlockTableRecord
  2
*PAPER_SPACE
  0
ENDTAB
  0
ENDSEC
  0
SECTION
  2
BLOCKS
  0
BLOCK
  5
D
100
AcDbEntity
  8
0
100
AcDbBlockBegin
  2
*MODEL_SPACE
 70
         0
 10
0.0
 20
0.0
 30
0.0
  3
*MODEL_SPACE
  1

  0
ENDBLK
  5
E
100
AcDbEntity
  8
0
100
AcDbBlockEnd
  0
BLOCK
  5
F
100
AcDbEntity
 67
         1
  8
0
100
AcDbBlockBegin
  2
*PAPER_SPACE
 70
         0
 10
0.0
 20
0.0
 30
0.0
  3
*PAPER_SPACE
  1

  0
ENDBLK
  5
10
100
AcDbEntity
 67
         1
  8
0
100
AcDbBlockEnd
  0
ENDSEC
  0
SECTION
  2
ENTITIES
  0
LINE
  5
29
100
AcDbEntity
  8
FLEXURES
 62
         1
100
AcDbLine
 10
7.4006718488
 20
279.7990336061
 30
0.0
 11
65.4503040812
 21
279.7977808654
 31
0.0
  0
LINE
  5
2A
100
AcDbEntity
  8
OUTLINES
  6
CONTINUOUS
 62
         7
100
AcDbLine
 10
33.7729239165
 20
292.648686175
 30
0.0
 11
33.7729239165
 21
294.5707831061
 31
0.0
  0
LINE
  5
2B
100
AcDbEntity
  8
OUTLINES
 62
         7
100
AcDbLine
 10
64.7661030938
 20
294.8988732219
 30
0.0
 11
64.7661030938
 21
257.9070132219
 31
0.0
  0
LINE
  5
2C
100
AcDbEntity
  8
FLEXURES
 62
         1
100
AcDbLine
 10
15.9768399165
 20
282.335380249
 30
0.0
 11
15.9768399165
 21
284.416410604
 31
0.0
  0
LINE
  5
2D
100
AcDbEntity
  8
OUTLINES
 62
         7
100
AcDbLine
 10
16.0018344165
 20
284.330667369
 30
0.0
 11
15.3769719165
 21
284.330667369
 31
0.0
  0
LINE
  5
2E
100
AcDbEntity
  8
OUTLINES
 62
         7
100
AcDbLine
 10
15.5519334165
 20
282.3761325431
 30
0.0
 11
16.0018344165
 21
282.3761325431
 31
0.0
  0
LINE
  5
2F
100
AcDbEntity
  8
OUTLINES
 62
         7
100
AcDbLine
 10
15.5519334165
 20
269.7735736691
 30
0.0
 11
16.0018344165
 21
269.7735736691
 31
0.0
  0
LINE
  5
30
100
AcDbEntity
  8
OUTLINES
 62
         7
100
AcDbLine
 10
16.0018344165
 20
267.8190388433
 30
0.0
 11
15.3769719165
 21
267.8190388433
 31
0.0
  0
LINE
  5
31
100
AcDbEntity
  8
OUTLINES
 62
         7
100
AcDbLine
 10
57.3677319165
 20
267.8190388433
 30
0.0
 11
58.1675559165
 21
267.8190388433
 31
0.0
  0
LINE
  5
32
100
AcDbEntity
  8
OUTLINES
 62
         7
100
AcDbLine
 10
57.9925944165
 20
269.7735736691
 30
0.0
 11
57.5426934165
 21
269.7735736691
 31
0.0
  0
LINE
  5
33
100
AcDbEntity
  8
OUTLINES
 62
         7
100
AcDbLine
 10
57.5426934165
 20
284.330667369
 30
0.0
 11
58.1675559165
 21
284.330667369
 31
0.0
  0
LINE
  5
34
100
AcDbEntity
  8
FLEXURES
 62
         1
100
AcDbLine
 10
15.3769719165
 20
294.6389304582
 30
0.0
 11
8.0669867714
 21
294.6389304582
 31
0.0
  0
LINE
  5
35
100
AcDbEntity
  8
OUTLINES
 62
         7
100
AcDbLine
 10
57.9925944165
 20
282.3761325431
 30
0.0
 11
57.5426934165
 21
282.3761325431
 31
0.0
  0
LINE
  5
36
100
AcDbEntity
  8
FLEXURES
 62
         1
100
AcDbLine
 10
15.9768399165
 20
269.8143259633
 30
0.0
 11
15.9768399165
 21
267.7332956083
 31
0.0
  0
LINE
  5
37
100
AcDbEntity
  8
FLEXURES
 62
         1
100
AcDbLine
 10
58.1675559165
 20
267.7332956083
 30
0.0
 11
58.1675559165
 21
269.8143259633
 31
0.0
  0
LINE
  5
38
100
AcDbEntity
  8
FLEXURES
 62
         1
100
AcDbLine
 10
58.1675559165
 20
284.416410604
 30
0.0
 11
58.1675559165
 21
282.335380249
 31
0.0
  0
LINE
  5
39
100
AcDbEntity
  8
OUTLINES
 62
         7
100
AcDbLine
 10
16.0018344165
 20
284.330667369
 30
0.0
 11
18.0013944165
 21
284.330667369
 31
0.0
  0
LINE
  5
3A
100
AcDbEntity
  8
OUTLINES
 62
         7
100
AcDbLine
 10
18.0013944165
 20
284.330667369
 30
0.0
 11
18.0013944165
 21
282.3761325431
 31
0.0
  0
LINE
  5
3B
100
AcDbEntity
  8
FLEXURES
 62
         1
100
AcDbLine
 10
32.9710274325
 20
294.6389304582
 30
0.0
 11
40.3409294178
 21
294.6389304582
 31
0.0
  0
LINE
  5
3C
100
AcDbEntity
  8
OUTLINES
  6
CONTINUOUS
 62
         7
100
AcDbLine
 10
18.0013944165
 20
267.8190388433
 30
0.0
 11
18.0013944165
 21
269.7735736691
 31
0.0
  0
LINE
  5
3D
100
AcDbEntity
  8
OUTLINES
  6
CONTINUOUS
 62
         7
100
AcDbLine
 10
16.0018344165
 20
267.8190388433
 30
0.0
 11
18.0013944165
 21
267.8190388433
 31
0.0
  0
LINE
  5
3E
100
AcDbEntity
  8
OUTLINES
 62
         2
100
AcDbLine
 10
36.7722639165
 20
294.5707831061
 30
0.0
 11
36.7722639165
 21
257.5789231061
 31
0.0
  0
LINE
  5
3F
100
AcDbEntity
  8
OUTLINES
  6
CONTINUOUS
 62
         7
100
AcDbLine
 10
8.7784239165
 20
269.7735736691
 30
0.0
 11
13.5523734165
 21
269.7735736691
 31
0.0
  0
LINE
  5
40
100
AcDbEntity
  8
FLEXURES
  6
CONTINUOUS
 62
         1
100
AcDbLine
 10
8.7784239165
 20
275.7749191061
 30
0.0
 11
65.4503040812
 21
275.7761718469
 31
0.0
  0
LINE
  5
41
100
AcDbEntity
  8
OUTLINES
  6
CONTINUOUS
 62
         7
100
AcDbLine
 10
8.7784239165
 20
282.3761325431
 30
0.0
 11
13.5523734165
 21
282.3761325431
 31
0.0
  0
LINE
  5
42
100
AcDbEntity
  8
OUTLINES
 62
         7
100
AcDbLine
 10
13.5523734165
 20
282.3761325431
 30
0.0
 11
15.5519334165
 21
282.3761325431
 31
0.0
  0
LINE
  5
43
100
AcDbEntity
  8
OUTLINES
 62
         7
100
AcDbLine
 10
13.5523734165
 20
269.7735736691
 30
0.0
 11
15.5519334165
 21
269.7735736691
 31
0.0
  0
LINE
  5
44
100
AcDbEntity
  8
OUTLINES
  6
CONTINUOUS
 62
         7
100
AcDbLine
 10
50.9441454165
 20
282.3761325431
 30
0.0
 11
50.9441454165
 21
269.7735736691
 31
0.0
  0
LINE
  5
45
100
AcDbEntity
  8
FLEXURES
  6
CONTINUOUS
 62
         1
100
AcDbLine
 10
65.4503040812
 20
280.4001543469
 30
0.0
 11
65.4503040812
 21
279.7977808654
 31
0.0
  0
LINE
  5
46
100
AcDbEntity
  8
FLEXURES
  6
CONTINUOUS
 62
         1
100
AcDbLine
 10
65.4503040812
 20
276.3735343654
 30
0.0
 11
65.4503040812
 21
275.7761718469
 31
0.0
  0
LINE
  5
47
100
AcDbEntity
  8
FLEXURES
  6
CONTINUOUS
 62
         1
100
AcDbLine
 10
65.4503040812
 20
272.3519253469
 30
0.0
 11
65.4503040812
 21
271.7495518654
 31
0.0
  0
LINE
  5
48
100
AcDbEntity
  8
EXTENTS
  6
CONTINUOUS
 62
         5
100
AcDbLine
 10
252.6798718339
 20
303.3
 30
0.0
 11
252.6798718339
 21
176.3
 31
0.0
  0
LINE
  5
49
100
AcDbEntity
  8
OUTLINES
  6
CONTINUOUS
 62
         7
100
AcDbLine
 10
50.9441454165
 20
282.3761325431
 30
0.0
 11
55.5431334165
 21
282.3761325431
 31
0.0
  0
LINE
  5
4A
100
AcDbEntity
  8
OUTLINES
  6
CONTINUOUS
 62
         7
100
AcDbLine
 10
50.9441454165
 20
269.7735736691
 30
0.0
 11
55.7180949165
 21
269.7735736691
 31
0.0
  0
LINE
  5
4B
100
AcDbEntity
  8
OUTLINES
  6
CONTINUOUS
 62
         7
100
AcDbLine
 10
59.9921544165
 20
269.7735736691
 30
0.0
 11
57.9925944165
 21
269.7735736691
 31
0.0
  0
LINE
  5
4C
100
AcDbEntity
  8
OUTLINES
  6
CONTINUOUS
 62
         7
100
AcDbLine
 10
59.9921544165
 20
282.3761325431
 30
0.0
 11
57.9925944165
 21
282.3761325431
 31
0.0
  0
LINE
  5
4D
100
AcDbEntity
  8
OUTLINES
  6
CONTINUOUS
 62
         7
100
AcDbLine
 10
64.7661039165
 20
282.3761325431
 30
0.0
 11
59.9921544165
 21
282.3761325431
 31
0.0
  0
LINE
  5
4E
100
AcDbEntity
  8
FLEXURES
 62
         1
100
AcDbLine
 10
65.4503040812
 20
272.3519253469
 30
0.0
 11
7.4006718488
 21
272.3506726061
 31
0.0
  0
LINE
  5
4F
100
AcDbEntity
  8
OUTLINES
  6
CONTINUOUS
 62
         7
100
AcDbLine
 10
64.7661039165
 20
269.7735736691
 30
0.0
 11
59.9921544165
 21
269.7735736691
 31
0.0
  0
LINE
  5
50
100
AcDbEntity
  8
FLEXURES
 62
         1
100
AcDbLine
 10
8.4389975842
 20
256.9072332582
 30
0.0
 11
15.1264125268
 21
256.9072332582
 31
0.0
  0
LINE
  5
51
100
AcDbEntity
  8
OUTLINES
  6
CONTINUOUS
 62
         7
100
AcDbLine
 10
57.3677319165
 20
267.8190388433
 30
0.0
 11
55.7180949165
 21
267.8190388433
 31
0.0
  0
LINE
  5
52
100
AcDbEntity
  8
OUTLINES
  6
CONTINUOUS
 62
         7
100
AcDbLine
 10
55.7180949165
 20
267.8190388433
 30
0.0
 11
55.7180949165
 21
269.7735736691
 31
0.0
  0
LINE
  5
53
100
AcDbEntity
  8
OUTLINES
  6
CONTINUOUS
 62
         7
100
AcDbLine
 10
55.5431334165
 20
284.330667369
 30
0.0
 11
55.5431334165
 21
282.3761325431
 31
0.0
  0
LINE
  5
54
100
AcDbEntity
  8
OUTLINES
  6
CONTINUOUS
 62
         7
100
AcDbLine
 10
57.5426934165
 20
284.330667369
 30
0.0
 11
55.5431334165
 21
284.330667369
 31
0.0
  0
LINE
  5
55
100
AcDbEntity
  8
FLEXURES
 62
         1
100
AcDbLine
 10
8.0669867714
 20
295.2387984582
 30
0.0
 11
15.3769719165
 21
295.2387984582
 31
0.0
  0
LINE
  5
56
100
AcDbEntity
  8
OUTLINES
  6
CONTINUOUS
 62
         7
100
AcDbLine
 10
33.7729239165
 20
300.2376984582
 30
0.0
 11
33.7729239165
 21
294.5707831061
 31
0.0
  0
LINE
  5
57
100
AcDbEntity
  8
OUTLINES
  6
CONTINUOUS
 62
         7
100
AcDbLine
 10
14.7771039165
 20
292.648686175
 30
0.0
 11
33.7729239165
 21
292.648686175
 31
0.0
  0
LINE
  5
58
100
AcDbEntity
  8
FLEXURES
 62
         1
100
AcDbLine
 10
32.9710274325
 20
257.5107757541
 30
0.0
 11
40.3409294178
 21
257.5107757541
 31
0.0
  0
LINE
  5
59
100
AcDbEntity
  8
OUTLINES
  6
CONTINUOUS
 62
         7
100
AcDbLine
 10
14.7771039165
 20
294.8988732442
 30
0.0
 11
14.7771039165
 21
292.648686175
 31
0.0
  0
LINE
  5
5A
100
AcDbEntity
  8
FLEXURES
 62
         1
100
AcDbLine
 10
33.7729239165
 20
295.2387984582
 30
0.0
 11
39.7716039165
 21
295.2387984582
 31
0.0
  0
LINE
  5
5B
100
AcDbEntity
  8
FLEXURES
 62
         1
100
AcDbLine
 10
65.4503040812
 20
280.4001543469
 30
0.0
 11
7.4006718488
 21
280.3989016061
 31
0.0
  0
LINE
  5
5C
100
AcDbEntity
  8
FLEXURES
 62
         1
100
AcDbLine
 10
8.7784239165
 20
276.3747871061
 30
0.0
 11
65.4503040812
 21
276.3735343654
 31
0.0
  0
LINE
  5
5D
100
AcDbEntity
  8
OUTLINES
  6
CONTINUOUS
 62
         7
100
AcDbLine
 10
39.7716039165
 20
292.648686175
 30
0.0
 11
39.7716039165
 21
294.5707831062
 31
0.0
  0
LINE
  5
5E
100
AcDbEntity
  8
OUTLINES
  6
CONTINUOUS
 62
         7
100
AcDbLine
 10
58.7674239165
 20
292.648686175
 30
0.0
 11
39.7716039165
 21
292.648686175
 31
0.0
  0
LINE
  5
5F
100
AcDbEntity
  8
OUTLINES
  6
CONTINUOUS
 62
         7
100
AcDbLine
 10
58.7674239165
 20
294.5707831061
 30
0.0
 11
58.7674239165
 21
292.648686175
 31
0.0
  0
LINE
  5
60
100
AcDbEntity
  8
OUTLINES
  6
CONTINUOUS
 62
         7
100
AcDbLine
 10
14.7771039165
 20
294.8988732442
 30
0.0
 11
14.7771039165
 21
300.2376984582
 31
0.0
  0
LINE
  5
61
100
AcDbEntity
  8
OUTLINES
 62
         7
100
AcDbLine
 10
33.7729239165
 20
300.2376984582
 30
0.0
 11
39.7716039165
 21
300.2376984582
 31
0.0
  0
LINE
  5
62
100
AcDbEntity
  8
OUTLINES
  6
CONTINUOUS
 62
         7
100
AcDbLine
 10
58.7674239165
 20
257.5789231062
 30
0.0
 11
58.7674239165
 21
259.5010200372
 31
0.0
  0
LINE
  5
63
100
AcDbEntity
  8
OUTLINES
  6
CONTINUOUS
 62
         7
100
AcDbLine
 10
58.7674239165
 20
259.5010200372
 30
0.0
 11
39.7716039165
 21
259.5010200372
 31
0.0
  0
LINE
  5
64
100
AcDbEntity
  8
FLEXURES
 62
         1
100
AcDbLine
 10
32.9710274325
 20
256.9109077541
 30
0.0
 11
40.3409294178
 21
256.9109077541
 31
0.0
  0
LINE
  5
65
100
AcDbEntity
  8
FLEXURES
 62
         1
100
AcDbLine
 10
58.1675559165
 20
256.9072332582
 30
0.0
 11
65.0503069901
 21
256.9072332582
 31
0.0
  0
LINE
  5
66
100
AcDbEntity
  8
OUTLINES
 62
         7
100
AcDbLine
 10
39.7716039165
 20
300.2376984582
 30
0.0
 11
39.7716039165
 21
294.5707831062
 31
0.0
  0
LINE
  5
67
100
AcDbEntity
  8
OUTLINES
  6
CONTINUOUS
 62
         7
100
AcDbLine
 10
33.7729239165
 20
252.2400979062
 30
0.0
 11
33.7729239165
 21
257.5789231061
 31
0.0
  0
LINE
  5
68
100
AcDbEntity
  8
OUTLINES
  6
CONTINUOUS
 62
         7
100
AcDbLine
 10
14.7771039165
 20
257.5789231062
 30
0.0
 11
14.7771039165
 21
259.5010200372
 31
0.0
  0
LINE
  5
69
100
AcDbEntity
  8
FLEXURES
 62
         1
100
AcDbLine
 10
8.4389975842
 20
257.5071012582
 30
0.0
 11
15.1264125268
 21
257.5071012582
 31
0.0
  0
LINE
  5
6A
100
AcDbEntity
  8
OUTLINES
  6
CONTINUOUS
 62
         7
100
AcDbLine
 10
22.7753439165
 20
269.7735736691
 30
0.0
 11
18.0013944165
 21
269.7735736691
 31
0.0
  0
LINE
  5
6B
100
AcDbEntity
  8
OUTLINES
  6
CONTINUOUS
 62
         7
100
AcDbLine
 10
22.7753439165
 20
282.3761325431
 30
0.0
 11
18.0013944165
 21
282.3761325431
 31
0.0
  0
LINE
  5
6C
100
AcDbEntity
  8
OUTLINES
100
AcDbLine
 10
22.7753439165
 20
282.3761325431
 30
0.0
 11
22.7753439165
 21
269.7735736691
 31
0.0
  0
LINE
  5
6D
100
AcDbEntity
  8
FLEXURES
  6
CONTINUOUS
 62
         1
100
AcDbLine
 10
32.9710274325
 20
256.9109077541
 30
0.0
 11
32.9710274325
 21
257.5107757541
 31
0.0
  0
LINE
  5
6E
100
AcDbEntity
  8
FLEXURES
 62
         1
100
AcDbLine
 10
57.8676219165
 20
295.2387984582
 30
0.0
 11
65.3345100636
 21
295.2387984582
 31
0.0
  0
LINE
  5
6F
100
AcDbEntity
  8
FLEXURES
 62
         1
100
AcDbLine
 10
57.8676219165
 20
294.6389304582
 30
0.0
 11
65.3345100636
 21
294.6389304582
 31
0.0
  0
LINE
  5
70
100
AcDbEntity
  8
FLEXURES
  6
CONTINUOUS
 62
         1
100
AcDbLine
 10
40.3409294178
 20
257.5107757541
 30
0.0
 11
40.3409294178
 21
256.9109077541
 31
0.0
  0
LINE
  5
71
100
AcDbEntity
  8
FLEXURES
 62
         1
100
AcDbLine
 10
65.4503040812
 20
271.7495518654
 30
0.0
 11
7.4006718488
 21
271.7508046061
 31
0.0
  0
LINE
  5
72
100
AcDbEntity
  8
OUTLINES
  6
CONTINUOUS
 62
         7
100
AcDbLine
 10
39.7716039165
 20
259.5010200372
 30
0.0
 11
39.7716039165
 21
257.5789231061
 31
0.0
  0
LINE
  5
73
100
AcDbEntity
  8
FLEXURES
 62
         1
100
AcDbLine
 10
65.4503040812
 20
279.7977808654
 30
0.0
 11
65.4400483145
 21
279.9011877061
 31
0.0
  0
LINE
  5
74
100
AcDbEntity
  8
OUTLINES
 62
         7
100
AcDbLine
 10
104.8329162934
 20
246.4271696958
 30
0.0
 11
104.8319118451
 21
252.2858804957
 31
0.0
  0
LINE
  5
75
100
AcDbEntity
  8
EXTENTS
  6
CONTINUOUS
 62
         5
100
AcDbLine
 10
252.6798718339
 20
176.3
 30
0.0
 11
0.0
 21
176.3
 31
0.0
  0
LINE
  5
76
100
AcDbEntity
  8
2_MIL_POLYMER
  6
CONTINUOUS
 62
         3
100
AcDbLine
 10
42.0810098518
 20
249.7896885117
 30
0.0
 11
42.0810098518
 21
262.416219486
 31
0.0
  0
LINE
  5
77
100
AcDbEntity
  8
2_MIL_POLYMER
 62
         3
100
AcDbLine
 10
31.2582690166
 20
302.3600177006
 30
0.0
 11
42.0810098518
 21
302.3600177006
 31
0.0
  0
LINE
  5
78
100
AcDbEntity
  8
2_MIL_POLYMER
 62
         3
100
AcDbLine
 10
31.2582690166
 20
302.3600177006
 30
0.0
 11
31.2582690166
 21
289.7334867263
 31
0.0
  0
LINE
  5
79
100
AcDbEntity
  8
OUTLINES
 62
         7
100
AcDbLine
 10
79.8122073074
 20
286.5767495164
 30
0.0
 11
79.8136318311
 21
298.2741755164
 31
0.0
  0
LINE
  5
7A
100
AcDbEntity
  8
OUTLINES
  6
CONTINUOUS
 62
         7
100
AcDbLine
 10
33.7729239165
 20
259.5010200372
 30
0.0
 11
33.7729239165
 21
257.5789231061
 31
0.0
  0
LINE
  5
7B
100
AcDbEntity
  8
2_MIL_POLYMER
 62
         3
100
AcDbLine
 10
31.2582690166
 20
289.7334867263
 30
0.0
 11
42.0810098518
 21
289.7334867263
 31
0.0
  0
LINE
  5
7C
100
AcDbEntity
  8
2_MIL_POLYMER
 62
         3
100
AcDbLine
 10
42.0810098518
 20
302.3600177006
 30
0.0
 11
42.0810098518
 21
289.7334867263
 31
0.0
  0
LINE
  5
7D
100
AcDbEntity
  8
OUTLINES
  6
CONTINUOUS
 62
         7
100
AcDbLine
 10
14.7771039165
 20
300.2376984582
 30
0.0
 11
8.7784247392
 21
300.2376984582
 31
0.0
  0
LINE
  5
7E
100
AcDbEntity
  8
OUTLINES
  6
CONTINUOUS
 62
         7
100
AcDbLine
 10
8.7784247392
 20
300.2376984582
 30
0.0
 11
8.7784239165
 21
294.6007765048
 31
0.0
  0
LINE
  5
7F
100
AcDbEntity
  8
OUTLINES
  6
CONTINUOUS
 62
         7
100
AcDbLine
 10
8.7784239165
 20
294.6007765048
 30
0.0
 11
8.7784239165
 21
257.6089165049
 31
0.0
  0
LINE
  5
80
100
AcDbEntity
  8
OUTLINES
 62
         7
100
AcDbLine
 10
58.7674239165
 20
294.5707831061
 30
0.0
 11
58.7674239165
 21
300.2376984582
 31
0.0
  0
LINE
  5
81
100
AcDbEntity
  8
OUTLINES
 62
         7
100
AcDbLine
 10
58.7674239165
 20
300.2376984582
 30
0.0
 11
64.7661030938
 21
300.2376984582
 31
0.0
  0
LINE
  5
82
100
AcDbEntity
  8
OUTLINES
 62
         7
100
AcDbLine
 10
64.7661030938
 20
300.2376984582
 30
0.0
 11
64.7661030938
 21
294.8988732219
 31
0.0
  0
LINE
  5
83
100
AcDbEntity
  8
OUTLINES
  6
CONTINUOUS
 62
         7
100
AcDbLine
 10
64.7661030938
 20
252.2400979061
 30
0.0
 11
64.7661030938
 21
257.9070132219
 31
0.0
  0
LINE
  5
84
100
AcDbEntity
  8
OUTLINES
  6
CONTINUOUS
 62
         7
100
AcDbLine
 10
58.7674239165
 20
252.2400979061
 30
0.0
 11
64.7661030938
 21
252.2400979061
 31
0.0
  0
LINE
  5
85
100
AcDbEntity
  8
OUTLINES
  6
CONTINUOUS
 62
         7
100
AcDbLine
 10
58.7674239165
 20
257.5789231062
 30
0.0
 11
58.7674239165
 21
252.2400979061
 31
0.0
  0
LINE
  5
86
100
AcDbEntity
  8
OUTLINES
  6
CONTINUOUS
 62
         7
100
AcDbLine
 10
14.7771039165
 20
257.5789231062
 30
0.0
 11
14.7771039165
 21
252.2400979061
 31
0.0
  0
LINE
  5
87
100
AcDbEntity
  8
OUTLINES
  6
CONTINUOUS
 62
         7
100
AcDbLine
 10
8.77830438
 20
252.2400979061
 30
0.0
 11
14.7771039165
 21
252.2400979061
 31
0.0
  0
LINE
  5
88
100
AcDbEntity
  8
OUTLINES
 62
         7
100
AcDbLine
 10
8.77830438
 20
252.2400979061
 30
0.0
 11
8.7784239165
 21
257.6089165049
 31
0.0
  0
LINE
  5
89
100
AcDbEntity
  8
OUTLINES
  6
CONTINUOUS
 62
         7
100
AcDbLine
 10
39.7716039165
 20
252.2400979061
 30
0.0
 11
39.7716039165
 21
257.5789231061
 31
0.0
  0
LINE
  5
8A
100
AcDbEntity
  8
OUTLINES
  6
CONTINUOUS
 62
         7
100
AcDbLine
 10
33.7729239165
 20
252.2400979061
 30
0.0
 11
39.7716039165
 21
252.2400979061
 31
0.0
  0
LINE
  5
8B
100
AcDbEntity
  8
OUTLINES
 62
         7
100
AcDbLine
 10
135.8502963828
 20
293.3552579163
 30
0.0
 11
135.8502325802
 21
286.4327914438
 31
0.0
  0
LINE
  5
8C
100
AcDbEntity
  8
OUTLINES
 62
         7
100
AcDbLine
 10
201.1404037182
 20
295.2270549441
 30
0.0
 11
201.1404037182
 21
294.5472045441
 31
0.0
  0
LINE
  5
8D
100
AcDbEntity
  8
OUTLINES
 62
         7
100
AcDbLine
 10
239.1320437118
 20
278.741475238
 30
0.0
 11
249.2937315339
 21
272.8738105313
 31
0.0
  0
LINE
  5
8E
100
AcDbEntity
  8
OUTLINES
  6
CONTINUOUS
 62
         7
100
AcDbLine
 10
239.1320437118
 20
282.42066563
 30
0.0
 11
249.2937315339
 21
288.2883303367
 31
0.0
  0
LINE
  5
8F
100
AcDbEntity
  8
2_MIL_POLYMER
  6
CONTINUOUS
 62
         3
100
AcDbLine
 10
31.2582690166
 20
262.416219486
 30
0.0
 11
42.0810098518
 21
262.416219486
 31
0.0
  0
LINE
  5
90
100
AcDbEntity
  8
2_MIL_POLYMER
  6
CONTINUOUS
 62
         3
100
AcDbLine
 10
31.2582690166
 20
249.7896885117
 30
0.0
 11
31.2582690166
 21
262.416219486
 31
0.0
  0
LINE
  5
91
100
AcDbEntity
  8
2_MIL_POLYMER
  6
CONTINUOUS
 62
         3
100
AcDbLine
 10
31.2582690166
 20
249.7896885117
 30
0.0
 11
42.0810098518
 21
249.7896885117
 31
0.0
  0
LINE
  5
92
100
AcDbEntity
  8
3_MIL_POLYMER
 62
         6
100
AcDbLine
 10
1.2397206212
 20
303.5672490341
 30
0.0
 11
12.0624614563
 21
303.5672490341
 31
0.0
  0
LINE
  5
93
100
AcDbEntity
  8
2_MIL_POLYMER
  6
CONTINUOUS
 62
         3
100
AcDbLine
 10
252.6798718339
 20
239.8
 30
0.0
 11
0.0
 21
239.8
 31
0.0
  0
LINE
  5
94
100
AcDbEntity
  8
2_MIL_POLYMER
 62
         3
100
AcDbLine
 10
252.6798718339
 20
239.8
 30
0.0
 11
252.6798718339
 21
304.8
 31
0.0
  0
LINE
  5
95
100
AcDbEntity
  8
2_MIL_POLYMER
 62
         3
100
AcDbLine
 10
252.6798718339
 20
304.8
 30
0.0
 11
0.0
 21
304.8
 31
0.0
  0
LINE
  5
96
100
AcDbEntity
  8
2_MIL_POLYMER
 62
         3
100
AcDbLine
 10
0.0
 20
239.8
 30
0.0
 11
0.0
 21
304.8
 31
0.0
  0
LINE
  5
97
100
AcDbEntity
  8
3_MIL_POLYMER
 62
         6
100
AcDbLine
 10
1.2397206212
 20
303.5672490341
 30
0.0
 11
1.2397206212
 21
290.9407180597
 31
0.0
  0
LINE
  5
98
100
AcDbEntity
  8
3_MIL_POLYMER
 62
         6
100
AcDbLine
 10
1.2397206212
 20
290.9407180597
 30
0.0
 11
12.0624614563
 21
290.9407180597
 31
0.0
  0
LINE
  5
99
100
AcDbEntity
  8
3_MIL_POLYMER
 62
         6
100
AcDbLine
 10
12.0624614563
 20
303.5672490341
 30
0.0
 11
12.0624614563
 21
290.9407180597
 31
0.0
  0
LINE
  5
9A
100
AcDbEntity
  8
3_MIL_POLYMER
 62
         6
100
AcDbLine
 10
13.2397206212
 20
303.5672490341
 30
0.0
 11
24.0624614563
 21
303.5672490341
 31
0.0
  0
LINE
  5
9B
100
AcDbEntity
  8
3_MIL_POLYMER
 62
         6
100
AcDbLine
 10
13.2397206212
 20
303.5672490341
 30
0.0
 11
13.2397206212
 21
290.9407180597
 31
0.0
  0
LINE
  5
9C
100
AcDbEntity
  8
3_MIL_POLYMER
 62
         6
100
AcDbLine
 10
13.2397206212
 20
290.9407180597
 30
0.0
 11
24.0624614563
 21
290.9407180597
 31
0.0
  0
LINE
  5
9D
100
AcDbEntity
  8
3_MIL_POLYMER
 62
         6
100
AcDbLine
 10
24.0624614563
 20
303.5672490341
 30
0.0
 11
24.0624614563
 21
290.9407180597
 31
0.0
  0
LINE
  5
9E
100
AcDbEntity
  8
3_MIL_POLYMER
 62
         6
100
AcDbLine
 10
25.2397206212
 20
303.5672490341
 30
0.0
 11
36.0624614563
 21
303.5672490341
 31
0.0
  0
LINE
  5
9F
100
AcDbEntity
  8
3_MIL_POLYMER
 62
         6
100
AcDbLine
 10
25.2397206212
 20
303.5672490341
 30
0.0
 11
25.2397206212
 21
290.9407180597
 31
0.0
  0
LINE
  5
A0
100
AcDbEntity
  8
3_MIL_POLYMER
 62
         6
100
AcDbLine
 10
25.2397206212
 20
290.9407180597
 30
0.0
 11
36.0624614563
 21
290.9407180597
 31
0.0
  0
LINE
  5
A1
100
AcDbEntity
  8
3_MIL_POLYMER
 62
         6
100
AcDbLine
 10
36.0624614563
 20
303.5672490341
 30
0.0
 11
36.0624614563
 21
290.9407180597
 31
0.0
  0
LINE
  5
A2
100
AcDbEntity
  8
3_MIL_POLYMER
 62
         6
100
AcDbLine
 10
1.2397206212
 20
289.5672490341
 30
0.0
 11
12.0624614563
 21
289.5672490341
 31
0.0
  0
LINE
  5
A3
100
AcDbEntity
  8
3_MIL_POLYMER
 62
         6
100
AcDbLine
 10
1.2397206212
 20
289.5672490341
 30
0.0
 11
1.2397206212
 21
276.9407180597
 31
0.0
  0
LINE
  5
A4
100
AcDbEntity
  8
3_MIL_POLYMER
 62
         6
100
AcDbLine
 10
1.2397206212
 20
276.9407180597
 30
0.0
 11
12.0624614563
 21
276.9407180597
 31
0.0
  0
LINE
  5
A5
100
AcDbEntity
  8
3_MIL_POLYMER
 62
         6
100
AcDbLine
 10
12.0624614563
 20
289.5672490341
 30
0.0
 11
12.0624614563
 21
276.9407180597
 31
0.0
  0
LINE
  5
A6
100
AcDbEntity
  8
3_MIL_POLYMER
 62
         6
100
AcDbLine
 10
13.2397206212
 20
289.5672490341
 30
0.0
 11
24.0624614563
 21
289.5672490341
 31
0.0
  0
LINE
  5
A7
100
AcDbEntity
  8
3_MIL_POLYMER
 62
         6
100
AcDbLine
 10
13.2397206212
 20
289.5672490341
 30
0.0
 11
13.2397206212
 21
276.9407180597
 31
0.0
  0
LINE
  5
A8
100
AcDbEntity
  8
3_MIL_POLYMER
 62
         6
100
AcDbLine
 10
13.2397206212
 20
276.9407180597
 30
0.0
 11
24.0624614563
 21
276.9407180597
 31
0.0
  0
LINE
  5
A9
100
AcDbEntity
  8
3_MIL_POLYMER
 62
         6
100
AcDbLine
 10
24.0624614563
 20
289.5672490341
 30
0.0
 11
24.0624614563
 21
276.9407180597
 31
0.0
  0
LINE
  5
AA
100
AcDbEntity
  8
3_MIL_POLYMER
 62
         6
100
AcDbLine
 10
25.2397206212
 20
289.5672490341
 30
0.0
 11
36.0624614563
 21
289.5672490341
 31
0.0
  0
LINE
  5
AB
100
AcDbEntity
  8
3_MIL_POLYMER
 62
         6
100
AcDbLine
 10
25.2397206212
 20
289.5672490341
 30
0.0
 11
25.2397206212
 21
276.9407180597
 31
0.0
  0
LINE
  5
AC
100
AcDbEntity
  8
3_MIL_POLYMER
 62
         6
100
AcDbLine
 10
25.2397206212
 20
276.9407180597
 30
0.0
 11
36.0624614563
 21
276.9407180597
 31
0.0
  0
LINE
  5
AD
100
AcDbEntity
  8
3_MIL_POLYMER
 62
         6
100
AcDbLine
 10
36.0624614563
 20
289.5672490341
 30
0.0
 11
36.0624614563
 21
276.9407180597
 31
0.0
  0
LINE
  5
AE
100
AcDbEntity
  8
OUTLINES
 62
         7
100
AcDbLine
 10
182.1197992559
 20
266.6149363235
 30
0.0
 11
225.7550359096
 21
266.6149363235
 31
0.0
  0
LINE
  5
AF
100
AcDbEntity
  8
OUTLINES
 62
         7
100
AcDbLine
 10
207.1390837181
 20
294.547204544
 30
0.0
 11
237.2465483739
 21
294.547204544
 31
0.0
  0
LINE
  5
B0
100
AcDbEntity
  8
FLEXURES
 62
         1
100
AcDbLine
 10
58.7674239165
 20
257.5071012582
 30
0.0
 11
64.7661039165
 21
257.5071012582
 31
0.0
  0
LINE
  5
B1
100
AcDbEntity
  8
FLEXURES
 62
         1
100
AcDbLine
 10
57.5676879165
 20
284.416410604
 30
0.0
 11
57.5676879165
 21
282.335380249
 31
0.0
  0
LINE
  5
B2
100
AcDbEntity
  8
FLEXURES
 62
         1
100
AcDbLine
 10
15.3769719165
 20
282.335380249
 30
0.0
 11
15.3769719165
 21
284.416410604
 31
0.0
  0
LINE
  5
B3
100
AcDbEntity
  8
FLEXURES
 62
         1
100
AcDbLine
 10
57.5676879165
 20
267.7332956083
 30
0.0
 11
57.5676879165
 21
269.8143259633
 31
0.0
  0
LINE
  5
B4
100
AcDbEntity
  8
FLEXURES
 62
         1
100
AcDbLine
 10
15.3769719165
 20
269.8143259633
 30
0.0
 11
15.3769719165
 21
267.7332956083
 31
0.0
  0
LINE
  5
B5
100
AcDbEntity
  8
OUTLINES
 62
         2
100
AcDbLine
 10
107.8312518451
 20
272.6106154061
 30
0.0
 11
107.8312518451
 21
244.6783471855
 31
0.0
  0
LINE
  5
B6
100
AcDbEntity
  8
OUTLINES
 62
         2
100
AcDbLine
 10
8.7784239165
 20
276.0748531061
 30
0.0
 11
64.7661039165
 21
276.0748531061
 31
0.0
  0
LINE
  5
B7
100
AcDbEntity
  8
OUTLINES
  6
CONTINUOUS
 62
         7
100
AcDbLine
 10
14.7771039165
 20
259.5010200372
 30
0.0
 11
33.7729239165
 21
259.5010200372
 31
0.0
  0
LINE
  5
B8
100
AcDbEntity
  8
FLEXURES
  6
CONTINUOUS
 62
         1
100
AcDbLine
 10
146.5123776106
 20
275.7623855246
 30
0.0
 11
139.6298519962
 21
287.6832695731
 31
0.0
  0
LINE
  5
B9
100
AcDbEntity
  8
EXTENTS
  6
CENTER
 62
         5
100
AcDbLine
 10
0.0
 20
239.8
 30
0.0
 11
252.6798718339
 21
239.8
 31
0.0
  0
LINE
  5
BA
100
AcDbEntity
  8
FLEXURES
  6
CONTINUOUS
 62
         1
100
AcDbLine
 10
147.0318759977
 20
276.0623239237
 30
0.0
 11
140.1493503833
 21
287.9832079721
 31
0.0
  0
LINE
  5
BB
100
AcDbEntity
  8
OUTLINES
 62
         7
100
AcDbLine
 10
79.8136318311
 20
298.2741755164
 30
0.0
 11
106.6077358311
 21
298.2741755164
 31
0.0
  0
LINE
  5
BC
100
AcDbEntity
  8
FLEXURES
  6
CONTINUOUS
 62
         1
100
AcDbLine
 10
150.4618594998
 20
278.442853793
 30
0.0
 11
143.0475902878
 21
291.2847447692
 31
0.0
  0
LINE
  5
BD
100
AcDbEntity
  8
OUTLINES
  6
CONTINUOUS
 62
         7
100
AcDbLine
 10
135.850296383
 20
264.3524326061
 30
0.0
 11
135.850296383
 21
280.3489126061
 31
0.0
  0
LINE
  5
BE
100
AcDbEntity
  8
OUTLINES
 62
         7
100
AcDbLine
 10
91.8095673076
 20
264.3524326061
 30
0.0
 11
79.8122073076
 21
264.3524326061
 31
0.0
  0
LINE
  5
BF
100
AcDbEntity
  8
OUTLINES
 62
         7
100
AcDbLine
 10
110.8315962934
 20
252.0259376959
 30
0.0
 11
114.8699146682
 21
258.3845384958
 31
0.0
  0
LINE
  5
C0
100
AcDbEntity
  8
FLEXURES
  6
CONTINUOUS
 62
         1
100
AcDbLine
 10
143.1585507623
 20
273.5772290474
 30
0.0
 11
135.7441728067
 21
286.4190572392
 31
0.0
  0
LINE
  5
C1
100
AcDbEntity
  8
FLEXURES
  6
CONTINUOUS
 62
         1
100
AcDbLine
 10
143.6780491494
 20
273.8771674465
 30
0.0
 11
136.2636711938
 21
286.7189956383
 31
0.0
  0
LINE
  5
C2
100
AcDbEntity
  8
FLEXURES
  6
CONTINUOUS
 62
         1
100
AcDbLine
 10
150.9813578869
 20
266.47843862
 30
0.0
 11
150.4618594998
 21
266.7783770191
 31
0.0
  0
LINE
  5
C3
100
AcDbEntity
  8
OUTLINES
 62
         7
100
AcDbLine
 10
91.8095673076
 20
264.3524326061
 30
0.0
 11
91.8095673076
 21
280.3489126061
 31
0.0
  0
LINE
  5
C4
100
AcDbEntity
  8
OUTLINES
 62
         7
100
AcDbLine
 10
100.7925890221
 20
258.6444812957
 30
0.0
 11
79.8122073073
 21
258.6444812957
 31
0.0
  0
LINE
  5
C5
100
AcDbEntity
  8
OUTLINES
 62
         7
100
AcDbLine
 10
91.8095673076
 20
280.3489126061
 30
0.0
 11
79.8122073076
 21
280.3489126061
 31
0.0
  0
LINE
  5
C6
100
AcDbEntity
  8
OUTLINES
  6
CONTINUOUS
 62
         7
100
AcDbLine
 10
142.823551845
 20
270.5110774063
 30
0.0
 11
142.823551845
 21
274.7101534058
 31
0.0
  0
LINE
  5
C7
100
AcDbEntity
  8
OUTLINES
 62
         7
100
AcDbLine
 10
152.9852396619
 20
264.6434127032
 30
0.0
 11
145.9768377341
 21
252.5204632338
 31
0.0
  0
LINE
  5
C8
100
AcDbEntity
  8
OUTLINES
 62
         7
100
AcDbLine
 10
79.8122073076
 20
264.3524326061
 30
0.0
 11
79.8122073076
 21
280.3489126061
 31
0.0
  0
LINE
  5
C9
100
AcDbEntity
  8
OUTLINES
  6
CONTINUOUS
 62
         7
100
AcDbLine
 10
123.852936383
 20
280.3489126061
 30
0.0
 11
135.850296383
 21
280.3489126061
 31
0.0
  0
LINE
  5
CA
100
AcDbEntity
  8
OUTLINES
  6
CONTINUOUS
 62
         7
100
AcDbLine
 10
123.852936383
 20
264.3524326061
 30
0.0
 11
123.852936383
 21
280.3489126061
 31
0.0
  0
LINE
  5
CB
100
AcDbEntity
  8
OUTLINES
  6
CONTINUOUS
 62
         7
100
AcDbLine
 10
123.852936383
 20
264.3524326061
 30
0.0
 11
135.850296383
 21
264.3524326061
 31
0.0
  0
LINE
  5
CC
100
AcDbEntity
  8
OUTLINES
  6
CONTINUOUS
 62
         7
100
AcDbLine
 10
225.7550359096
 20
266.0150683235
 30
0.0
 11
204.9596119096
 21
266.0150683235
 31
0.0
  0
LINE
  5
CD
100
AcDbEntity
  8
FLEXURES
  6
CONTINUOUS
 62
         1
100
AcDbLine
 10
150.9813578869
 20
266.47843862
 30
0.0
 11
143.5670886749
 21
253.6365476438
 31
0.0
  0
LINE
  5
CE
100
AcDbEntity
  8
FLEXURES
  6
CONTINUOUS
 62
         1
100
AcDbLine
 10
150.4618594998
 20
266.7783770191
 30
0.0
 11
143.0475902878
 21
253.9364860429
 31
0.0
  0
LINE
  5
CF
100
AcDbEntity
  8
FLEXURES
  6
CONTINUOUS
 62
         1
100
AcDbLine
 10
150.9813578869
 20
278.7427921921
 30
0.0
 11
143.5670886749
 21
291.5846831683
 31
0.0
  0
LINE
  5
D0
100
AcDbEntity
  8
FLEXURES
 62
         1
100
AcDbLine
 10
139.6298519962
 20
287.6832695731
 30
0.0
 11
140.1493503833
 21
287.9832079721
 31
0.0
  0
LINE
  5
D1
100
AcDbEntity
  8
OUTLINES
 62
         7
100
AcDbLine
 10
114.8699146682
 20
258.3845384958
 30
0.0
 11
135.822291341
 21
258.3845384958
 31
0.0
  0
LINE
  5
D2
100
AcDbEntity
  8
OUTLINES
 62
         7
100
AcDbLine
 10
129.8516163828
 20
298.3541579163
 30
0.0
 11
156.6457203828
 21
298.3541579163
 31
0.0
  0
LINE
  5
D3
100
AcDbEntity
  8
FLEXURES
 62
         1
100
AcDbLine
 10
143.0475902878
 20
291.2847447692
 30
0.0
 11
143.5670886749
 21
291.5846831683
 31
0.0
  0
LINE
  5
D4
100
AcDbEntity
  8
FLEXURES
 62
         1
100
AcDbLine
 10
150.9813578869
 20
278.7427921921
 30
0.0
 11
150.4618594998
 21
278.442853793
 31
0.0
  0
LINE
  5
D5
100
AcDbEntity
  8
FLEXURES
 62
         1
100
AcDbLine
 10
147.0318759977
 20
276.0623239237
 30
0.0
 11
146.5123776106
 21
275.7623855246
 31
0.0
  0
LINE
  5
D6
100
AcDbEntity
  8
FLEXURES
  6
CONTINUOUS
 62
         1
100
AcDbLine
 10
151.6468203831
 20
292.9553459163
 30
0.0
 11
151.6468203831
 21
298.4941271163
 31
0.0
  0
LINE
  5
D7
100
AcDbEntity
  8
OUTLINES
  6
CONTINUOUS
 62
         7
100
AcDbLine
 10
144.206945816
 20
253.5436559777
 30
0.0
 11
143.4793534809
 21
253.9637316082
 31
0.0
  0
LINE
  5
D8
100
AcDbEntity
  8
OUTLINES
  6
CONTINUOUS
 62
         7
100
AcDbLine
 10
104.8319118451
 20
252.2858804957
 30
0.0
 11
100.7925890221
 21
258.6444812957
 31
0.0
  0
LINE
  5
D9
100
AcDbEntity
  8
OUTLINES
 62
         7
100
AcDbLine
 10
129.8577682527
 20
292.6754075162
 30
0.0
 11
125.4280501287
 21
286.4003677857
 31
0.0
  0
LINE
  5
DA
100
AcDbEntity
  8
FLEXURES
 62
         1
100
AcDbLine
 10
143.1585507623
 20
273.5772290474
 30
0.0
 11
143.6780491494
 21
273.8771674465
 31
0.0
  0
LINE
  5
DB
100
AcDbEntity
  8
OUTLINES
 62
         7
100
AcDbLine
 10
85.8184637011
 20
292.6754075164
 30
0.0
 11
89.8089627546
 21
286.4003677857
 31
0.0
  0
LINE
  5
DC
100
AcDbEntity
  8
OUTLINES
  6
CONTINUOUS
 62
         7
100
AcDbLine
 10
152.9833594593
 20
280.581070434
 30
0.0
 11
145.982184138
 21
292.6915195094
 31
0.0
  0
LINE
  5
DD
100
AcDbEntity
  8
OUTLINES
 62
         7
100
AcDbLine
 10
125.4280501287
 20
286.4003677857
 30
0.0
 11
89.8089627546
 21
286.4003677857
 31
0.0
  0
LINE
  5
DE
100
AcDbEntity
  8
OUTLINES
  6
CONTINUOUS
 62
         7
100
AcDbLine
 10
144.206945816
 20
253.5436559777
 30
0.0
 11
145.9768377341
 21
252.5204632338
 31
0.0
  0
LINE
  5
DF
100
AcDbEntity
  8
OUTLINES
  6
CONTINUOUS
 62
         7
100
AcDbLine
 10
151.2153477434
 20
265.6666054472
 30
0.0
 11
150.4875244365
 21
266.0862807675
 31
0.0
  0
LINE
  5
E0
100
AcDbEntity
  8
OUTLINES
  6
CONTINUOUS
 62
         7
100
AcDbLine
 10
151.2153477434
 20
265.6666054472
 30
0.0
 11
152.9852396619
 21
264.6434127032
 31
0.0
  0
LINE
  5
E1
100
AcDbEntity
  8
OUTLINES
  6
CONTINUOUS
 62
         7
100
AcDbLine
 10
72.8389518452
 20
270.7710202061
 30
0.0
 11
72.8389518452
 21
274.4502106061
 31
0.0
  0
LINE
  5
E2
100
AcDbEntity
  8
FLEXURES
 62
         1
100
AcDbLine
 10
135.7441728067
 20
286.4190572392
 30
0.0
 11
136.2636711938
 21
286.7189956383
 31
0.0
  0
LINE
  5
E3
100
AcDbEntity
  8
FLEXURES
  6
CONTINUOUS
 62
         1
100
AcDbLine
 10
143.0475902878
 20
253.9364860429
 30
0.0
 11
143.5670886749
 21
253.6365476438
 31
0.0
  0
LINE
  5
E4
100
AcDbEntity
  8
OUTLINES
  6
CONTINUOUS
 62
         7
100
AcDbLine
 10
150.5206163545
 20
279.1540512542
 30
0.0
 11
152.9833594593
 21
280.581070434
 31
0.0
  0
LINE
  5
E5
100
AcDbEntity
  8
OUTLINES
  6
CONTINUOUS
 62
         7
100
AcDbLine
 10
143.5073585231
 20
291.2574992041
 30
0.0
 11
145.982184138
 21
292.6915195094
 31
0.0
  0
LINE
  5
E6
100
AcDbEntity
  8
OUTLINES
  6
CONTINUOUS
 62
         7
100
AcDbLine
 10
231.7537159096
 20
261.0161683235
 30
0.0
 11
204.9596119096
 21
261.0161683235
 31
0.0
  0
LINE
  5
E7
100
AcDbEntity
  8
OUTLINES
100
AcDbLine
 10
142.823551845
 20
270.5110774063
 30
0.0
 11
150.4875244365
 21
266.0862807675
 31
0.0
  0
LINE
  5
E8
100
AcDbEntity
  8
FLEXURES
  6
CONTINUOUS
 62
         1
100
AcDbLine
 10
143.3370409741
 20
270.773346702
 30
0.0
 11
135.9226630184
 21
257.9315185103
 31
0.0
  0
LINE
  5
E9
100
AcDbEntity
  8
OUTLINES
100
AcDbLine
 10
135.822291341
 20
258.3845384958
 30
0.0
 11
140.9380565018
 21
258.3845384958
 31
0.0
  0
LINE
  5
EA
100
AcDbEntity
  8
OUTLINES
100
AcDbLine
 10
79.8122073074
 20
286.5767495164
 30
0.0
 11
72.8389518452
 21
274.4502106061
 31
0.0
  0
LINE
  5
EB
100
AcDbEntity
  8
OUTLINES
100
AcDbLine
 10
140.9380565018
 20
258.3845384958
 30
0.0
 11
143.4793534809
 21
253.9637316082
 31
0.0
  0
LINE
  5
EC
100
AcDbEntity
  8
OUTLINES
  6
CONTINUOUS
 62
         7
100
AcDbLine
 10
140.7338794801
 20
286.4327914438
 30
0.0
 11
143.5073585231
 21
291.2574992041
 31
0.0
  0
LINE
  5
ED
100
AcDbEntity
  8
OUTLINES
  6
CONTINUOUS
 62
         7
100
AcDbLine
 10
135.8502325802
 20
286.4327914438
 30
0.0
 11
140.7338794801
 21
286.4327914438
 31
0.0
  0
LINE
  5
EE
100
AcDbEntity
  8
OUTLINES
100
AcDbLine
 10
150.4875244366
 20
279.1349500447
 30
0.0
 11
142.823551845
 21
274.7101534058
 31
0.0
  0
LINE
  5
EF
100
AcDbEntity
  8
OUTLINES
100
AcDbLine
 10
79.8122073073
 20
258.6444812957
 30
0.0
 11
72.8389518452
 21
270.7710202061
 31
0.0
  0
LINE
  5
F0
100
AcDbEntity
  8
FLEXURES
  6
CONTINUOUS
 62
         1
100
AcDbLine
 10
135.4031646313
 20
258.2314569094
 30
0.0
 11
135.9226630184
 21
257.9315185103
 31
0.0
  0
LINE
  5
F1
100
AcDbEntity
  8
FLEXURES
  6
CONTINUOUS
 62
         1
100
AcDbLine
 10
142.817542587
 20
271.0732851011
 30
0.0
 11
143.3370409741
 21
270.773346702
 31
0.0
  0
LINE
  5
F2
100
AcDbEntity
  8
FLEXURES
  6
CONTINUOUS
 62
         1
100
AcDbLine
 10
101.6088358311
 20
292.8753635164
 30
0.0
 11
101.6088358311
 21
298.4141447164
 31
0.0
  0
LINE
  5
F3
100
AcDbEntity
  8
FLEXURES
  6
CONTINUOUS
 62
         1
100
AcDbLine
 10
101.0089678311
 20
298.4141447164
 30
0.0
 11
101.0089678311
 21
292.8753635164
 31
0.0
  0
LINE
  5
F4
100
AcDbEntity
  8
FLEXURES
  6
CONTINUOUS
 62
         1
100
AcDbLine
 10
97.6097158311
 20
298.4141447164
 30
0.0
 11
97.6097158311
 21
292.8753635164
 31
0.0
  0
LINE
  5
F5
100
AcDbEntity
  8
FLEXURES
  6
CONTINUOUS
 62
         1
100
AcDbLine
 10
97.0098478311
 20
292.8753635164
 30
0.0
 11
97.0098478311
 21
298.4141447164
 31
0.0
  0
LINE
  5
F6
100
AcDbEntity
  8
FLEXURES
  6
CONTINUOUS
 62
         1
100
AcDbLine
 10
91.0111678311
 20
298.4141447164
 30
0.0
 11
91.0111678311
 21
292.8753635164
 31
0.0
  0
LINE
  5
F7
100
AcDbEntity
  8
FLEXURES
  6
CONTINUOUS
 62
         1
100
AcDbLine
 10
90.4112998311
 20
292.8753635164
 30
0.0
 11
90.4112998311
 21
298.4141447164
 31
0.0
  0
LINE
  5
F8
100
AcDbEntity
  8
FLEXURES
  6
CONTINUOUS
 62
         1
100
AcDbLine
 10
86.4121798311
 20
298.4141447164
 30
0.0
 11
86.4121798311
 21
292.6754075164
 31
0.0
  0
LINE
  5
F9
100
AcDbEntity
  8
OUTLINES
  6
CONTINUOUS
 62
         7
100
AcDbLine
 10
106.6077358311
 20
293.2752755164
 30
0.0
 11
106.6077358311
 21
298.2741755164
 31
0.0
  0
LINE
  5
FA
100
AcDbEntity
  8
OUTLINES
 62
         7
100
AcDbLine
 10
85.8123118311
 20
293.2752755164
 30
0.0
 11
106.6077358311
 21
293.2752755164
 31
0.0
  0
LINE
  5
FB
100
AcDbEntity
  8
FLEXURES
  6
CONTINUOUS
 62
         1
100
AcDbLine
 10
85.8123118311
 20
293.2752755164
 30
0.0
 11
85.8123118311
 21
298.8140567164
 31
0.0
  0
LINE
  5
FC
100
AcDbEntity
  8
FLEXURES
  6
CONTINUOUS
 62
         3
100
AcDbLine
 10
79.5604524469
 20
292.8753635164
 30
0.0
 11
79.5630765302
 21
292.8799085619
 31
0.0
  0
LINE
  5
FD
100
AcDbEntity
  8
FLEXURES
  6
CONTINUOUS
 62
         1
100
AcDbLine
 10
85.8123118311
 20
293.2752755164
 30
0.0
 11
78.9061706822
 21
293.2752755164
 31
0.0
  0
LINE
  5
FE
100
AcDbEntity
  8
FLEXURES
  6
CONTINUOUS
 62
         1
100
AcDbLine
 10
85.8123118311
 20
292.6754075164
 30
0.0
 11
78.9061706822
 21
292.6754075164
 31
0.0
  0
LINE
  5
FF
100
AcDbEntity
  8
OUTLINES
  6
CONTINUOUS
 62
         7
100
AcDbLine
 10
85.8123118311
 20
293.2752755164
 30
0.0
 11
85.8123118311
 21
292.6754075164
 31
0.0
  0
LINE
  5
100
100
AcDbEntity
  8
FLEXURES
  6
CONTINUOUS
 62
         1
100
AcDbLine
 10
147.3249875839
 20
268.8298164764
 30
0.0
 11
146.8054891968
 21
269.1297548755
 31
0.0
  0
LINE
  5
101
100
AcDbEntity
  8
FLEXURES
  6
CONTINUOUS
 62
         1
100
AcDbLine
 10
139.9229635824
 20
257.208870827
 30
0.0
 11
140.4424619695
 21
256.9089324279
 31
0.0
  0
LINE
  5
102
100
AcDbEntity
  8
FLEXURES
  6
CONTINUOUS
 62
         1
100
AcDbLine
 10
142.817542587
 20
271.0732851011
 30
0.0
 11
135.4031646313
 21
258.2314569094
 31
0.0
  0
LINE
  5
103
100
AcDbEntity
  8
FLEXURES
  6
CONTINUOUS
 62
         1
100
AcDbLine
 10
147.3249875839
 20
268.8298164764
 30
0.0
 11
140.4424619695
 21
256.9089324279
 31
0.0
  0
LINE
  5
104
100
AcDbEntity
  8
FLEXURES
  6
CONTINUOUS
 62
         1
100
AcDbLine
 10
146.8054891968
 20
269.1297548755
 30
0.0
 11
139.9229635824
 21
257.208870827
 31
0.0
  0
LINE
  5
105
100
AcDbEntity
  8
FLEXURES
  6
CONTINUOUS
 62
         1
100
AcDbLine
 10
151.0469523831
 20
298.4941271163
 30
0.0
 11
151.0469523831
 21
292.9553459163
 31
0.0
  0
LINE
  5
106
100
AcDbEntity
  8
FLEXURES
  6
CONTINUOUS
 62
         1
100
AcDbLine
 10
147.6477003831
 20
298.4941271163
 30
0.0
 11
147.6477003831
 21
292.9553459163
 31
0.0
  0
LINE
  5
107
100
AcDbEntity
  8
FLEXURES
  6
CONTINUOUS
 62
         1
100
AcDbLine
 10
147.0478323831
 20
292.9553459163
 30
0.0
 11
147.0478323831
 21
298.4941271163
 31
0.0
  0
LINE
  5
108
100
AcDbEntity
  8
FLEXURES
  6
CONTINUOUS
 62
         1
100
AcDbLine
 10
141.0491523831
 20
298.4941271163
 30
0.0
 11
141.0491523831
 21
292.9553459163
 31
0.0
  0
LINE
  5
109
100
AcDbEntity
  8
FLEXURES
  6
CONTINUOUS
 62
         1
100
AcDbLine
 10
140.4492843831
 20
292.9553459163
 30
0.0
 11
140.4492843831
 21
298.4941271163
 31
0.0
  0
LINE
  5
10A
100
AcDbEntity
  8
FLEXURES
  6
CONTINUOUS
 62
         1
100
AcDbLine
 10
136.4501643831
 20
298.4941271163
 30
0.0
 11
136.4501643831
 21
292.9553459163
 31
0.0
  0
LINE
  5
10B
100
AcDbEntity
  8
OUTLINES
  6
CONTINUOUS
 62
         7
100
AcDbLine
 10
156.6457203828
 20
293.3552579163
 30
0.0
 11
156.6457203828
 21
298.3541579163
 31
0.0
  0
LINE
  5
10C
100
AcDbEntity
  8
OUTLINES
  6
CONTINUOUS
 62
         7
100
AcDbLine
 10
129.8516163828
 20
293.3552579162
 30
0.0
 11
129.8516163828
 21
298.3541579163
 31
0.0
  0
LINE
  5
10D
100
AcDbEntity
  8
OUTLINES
 62
         7
100
AcDbLine
 10
135.8502963828
 20
293.3552579163
 30
0.0
 11
156.6457203828
 21
293.3552579163
 31
0.0
  0
LINE
  5
10E
100
AcDbEntity
  8
FLEXURES
  6
CONTINUOUS
 62
         1
100
AcDbLine
 10
135.8502963828
 20
293.3552579163
 30
0.0
 11
135.8502963828
 21
298.8940391163
 31
0.0
  0
LINE
  5
10F
100
AcDbEntity
  8
FLEXURES
  6
CONTINUOUS
 62
         3
100
AcDbLine
 10
129.5984369989
 20
292.9553459163
 30
0.0
 11
129.6010610821
 21
292.9598909618
 31
0.0
  0
LINE
  5
110
100
AcDbEntity
  8
FLEXURES
  6
CONTINUOUS
 62
         1
100
AcDbLine
 10
135.8502963828
 20
293.3552579163
 30
0.0
 11
128.9441552342
 21
293.3552579163
 31
0.0
  0
LINE
  5
111
100
AcDbEntity
  8
OUTLINES
  6
CONTINUOUS
 62
         7
100
AcDbLine
 10
129.8516163828
 20
293.0153327162
 30
0.0
 11
129.8516163828
 21
293.3552579162
 31
0.0
  0
LINE
  5
112
100
AcDbEntity
  8
FLEXURES
  6
CONTINUOUS
 62
         1
100
AcDbLine
 10
209.9585119096
 20
266.4149803235
 30
0.0
 11
209.9585119096
 21
260.2096791235
 31
0.0
  0
LINE
  5
113
100
AcDbEntity
  8
OUTLINES
  6
CONTINUOUS
 62
         7
100
AcDbLine
 10
129.8516163831
 20
292.6754075162
 30
0.0
 11
129.8516163831
 21
293.0153327162
 31
0.0
  0
LINE
  5
114
100
AcDbEntity
  8
FLEXURES
  6
CONTINUOUS
 62
         1
100
AcDbLine
 10
210.5583799096
 20
260.2096791235
 30
0.0
 11
210.5583799096
 21
266.4149803235
 31
0.0
  0
LINE
  5
115
100
AcDbEntity
  8
FLEXURES
  6
CONTINUOUS
 62
         1
100
AcDbLine
 10
213.9576319096
 20
260.2096791235
 30
0.0
 11
213.9576319096
 21
266.4149803235
 31
0.0
  0
LINE
  5
116
100
AcDbEntity
  8
FLEXURES
  6
CONTINUOUS
 62
         1
100
AcDbLine
 10
214.5574999096
 20
266.4149803235
 30
0.0
 11
214.5574999096
 21
260.2096791235
 31
0.0
  0
LINE
  5
117
100
AcDbEntity
  8
FLEXURES
  6
CONTINUOUS
 62
         1
100
AcDbLine
 10
220.5561799096
 20
260.2096791235
 30
0.0
 11
220.5561799096
 21
266.4149803235
 31
0.0
  0
LINE
  5
118
100
AcDbEntity
  8
FLEXURES
  6
CONTINUOUS
 62
         1
100
AcDbLine
 10
221.1560479096
 20
266.4149803235
 30
0.0
 11
221.1560479096
 21
260.2096791235
 31
0.0
  0
LINE
  5
119
100
AcDbEntity
  8
OUTLINES
  6
CONTINUOUS
 62
         7
100
AcDbLine
 10
180.3449797181
 20
295.2270549441
 30
0.0
 11
180.3449797181
 21
300.2259549441
 31
0.0
  0
LINE
  5
11A
100
AcDbEntity
  8
FLEXURES
  6
CONTINUOUS
 62
         1
100
AcDbLine
 10
225.1551679096
 20
260.8761991235
 30
0.0
 11
225.1551679096
 21
266.4149803235
 31
0.0
  0
LINE
  5
11B
100
AcDbEntity
  8
FLEXURES
  6
CONTINUOUS
 62
         1
100
AcDbLine
 10
225.7550359096
 20
266.0150683235
 30
0.0
 11
225.7550359096
 21
260.4762871235
 31
0.0
  0
LINE
  5
11C
100
AcDbEntity
  8
OUTLINES
  6
CONTINUOUS
 62
         7
100
AcDbLine
 10
176.1211192559
 20
266.0150683234
 30
0.0
 11
155.3256952559
 21
266.0150683234
 31
0.0
  0
LINE
  5
11D
100
AcDbEntity
  8
FLEXURES
  6
CONTINUOUS
 62
         3
100
AcDbLine
 10
232.0068952938
 20
266.4149803235
 30
0.0
 11
232.0042712106
 21
266.410435278
 31
0.0
  0
LINE
  5
11E
100
AcDbEntity
  8
FLEXURES
  6
CONTINUOUS
 62
         1
100
AcDbLine
 10
225.7550359096
 20
266.0150683235
 30
0.0
 11
232.6611770583
 21
266.0150683235
 31
0.0
  0
LINE
  5
11F
100
AcDbEntity
  8
OUTLINES
  6
CONTINUOUS
 62
         7
100
AcDbLine
 10
231.7537159096
 20
266.3549935235
 30
0.0
 11
231.7537159096
 21
266.0150683235
 31
0.0
  0
LINE
  5
120
100
AcDbEntity
  8
OUTLINES
  6
CONTINUOUS
 62
         7
100
AcDbLine
 10
231.7537159096
 20
266.6949187235
 30
0.0
 11
231.7537159096
 21
266.3549935235
 31
0.0
  0
LINE
  5
121
100
AcDbEntity
  8
FLEXURES
  6
CONTINUOUS
 62
         1
100
AcDbLine
 10
225.7550359096
 20
266.6149363235
 30
0.0
 11
232.6611770585
 21
266.6149363235
 31
0.0
  0
LINE
  5
122
100
AcDbEntity
  8
OUTLINES
  6
CONTINUOUS
 62
         7
100
AcDbLine
 10
225.7550359096
 20
266.0150683235
 30
0.0
 11
225.7550359096
 21
266.6149363235
 31
0.0
  0
LINE
  5
123
100
AcDbEntity
  8
OUTLINES
  6
CONTINUOUS
 62
         7
100
AcDbLine
 10
231.7537159096
 20
266.0150683235
 30
0.0
 11
231.7537159096
 21
261.0161683235
 31
0.0
  0
LINE
  5
124
100
AcDbEntity
  8
OUTLINES
  6
CONTINUOUS
 62
         7
100
AcDbLine
 10
204.9596119096
 20
266.0150683235
 30
0.0
 11
204.9596119096
 21
261.0161683235
 31
0.0
  0
LINE
  5
125
100
AcDbEntity
  8
FLEXURES
  6
CONTINUOUS
 62
         1
100
AcDbLine
 10
242.772367271
 20
284.2479769817
 30
0.0
 11
235.8898416567
 21
296.1688610302
 31
0.0
  0
LINE
  5
126
100
AcDbEntity
  8
FLEXURES
  6
CONTINUOUS
 62
         1
100
AcDbLine
 10
243.2918656581
 20
284.5479153808
 30
0.0
 11
236.4093400438
 21
296.4687994293
 31
0.0
  0
LINE
  5
127
100
AcDbEntity
  8
FLEXURES
  6
CONTINUOUS
 62
         1
100
AcDbLine
 10
247.2213552235
 20
286.0632753699
 30
0.0
 11
239.3075799483
 21
299.7703362263
 31
0.0
  0
LINE
  5
128
100
AcDbEntity
  8
FLEXURES
  6
CONTINUOUS
 62
         1
100
AcDbLine
 10
239.4185404228
 20
282.0628205046
 30
0.0
 11
232.0041624671
 21
294.9046486963
 31
0.0
  0
LINE
  5
129
100
AcDbEntity
  8
FLEXURES
  6
CONTINUOUS
 62
         1
100
AcDbLine
 10
239.9380388099
 20
282.3627589037
 30
0.0
 11
232.5236608542
 21
295.2045870954
 31
0.0
  0
LINE
  5
12A
100
AcDbEntity
  8
FLEXURES
  6
CONTINUOUS
 62
         1
100
AcDbLine
 10
247.7408536106
 20
286.363213769
 30
0.0
 11
239.8270783354
 21
300.0702746254
 31
0.0
  0
LINE
  5
12B
100
AcDbEntity
  8
FLEXURES
 62
         1
100
AcDbLine
 10
235.8898416567
 20
296.1688610302
 30
0.0
 11
236.4093400438
 21
296.4687994293
 31
0.0
  0
LINE
  5
12C
100
AcDbEntity
  8
FLEXURES
 62
         1
100
AcDbLine
 10
239.3075799483
 20
299.7703362263
 30
0.0
 11
239.8270783354
 21
300.0702746254
 31
0.0
  0
LINE
  5
12D
100
AcDbEntity
  8
FLEXURES
 62
         1
100
AcDbLine
 10
247.7408536106
 20
286.363213769
 30
0.0
 11
247.2213552235
 21
286.0632753699
 31
0.0
  0
LINE
  5
12E
100
AcDbEntity
  8
FLEXURES
 62
         1
100
AcDbLine
 10
243.2918656581
 20
284.5479153808
 30
0.0
 11
242.772367271
 21
284.2479769817
 31
0.0
  0
LINE
  5
12F
100
AcDbEntity
  8
FLEXURES
 62
         1
100
AcDbLine
 10
239.4185404228
 20
282.0628205046
 30
0.0
 11
239.9380388099
 21
282.3627589037
 31
0.0
  0
LINE
  5
130
100
AcDbEntity
  8
FLEXURES
 62
         1
100
AcDbLine
 10
232.0041624671
 20
294.9046486963
 30
0.0
 11
232.5236608542
 21
295.2045870954
 31
0.0
  0
LINE
  5
131
100
AcDbEntity
  8
FLEXURES
  6
CONTINUOUS
 62
         1
100
AcDbLine
 10
247.7408536106
 20
274.798927099
 30
0.0
 11
239.8270783354
 21
261.0918662426
 31
0.0
  0
LINE
  5
132
100
AcDbEntity
  8
FLEXURES
  6
CONTINUOUS
 62
         7
100
AcDbLine
 10
241.2771252695
 20
261.3337143717
 30
0.0
 11
241.2750409892
 21
261.3301090383
 31
0.0
  0
LINE
  5
133
100
AcDbEntity
  8
FLEXURES
  6
CONTINUOUS
 62
         1
100
AcDbLine
 10
232.0041624671
 20
266.2574921717
 30
0.0
 11
232.5236608542
 21
265.9575537727
 31
0.0
  0
LINE
  5
134
100
AcDbEntity
  8
FLEXURES
  6
CONTINUOUS
 62
         1
100
AcDbLine
 10
239.4185404228
 20
279.0993203635
 30
0.0
 11
239.9380388099
 21
278.7993819644
 31
0.0
  0
LINE
  5
135
100
AcDbEntity
  8
FLEXURES
  6
CONTINUOUS
 62
         1
100
AcDbLine
 10
243.2918656581
 20
276.6142254872
 30
0.0
 11
242.772367271
 21
276.9141638863
 31
0.0
  0
LINE
  5
136
100
AcDbEntity
  8
FLEXURES
  6
CONTINUOUS
 62
         1
100
AcDbLine
 10
247.7408536106
 20
274.798927099
 30
0.0
 11
247.2213552235
 21
275.0988654981
 31
0.0
  0
LINE
  5
137
100
AcDbEntity
  8
FLEXURES
  6
CONTINUOUS
 62
         1
100
AcDbLine
 10
239.3075799483
 20
261.3918046417
 30
0.0
 11
239.8270783354
 21
261.0918662426
 31
0.0
  0
LINE
  5
138
100
AcDbEntity
  8
FLEXURES
  6
CONTINUOUS
 62
         1
100
AcDbLine
 10
235.8898416567
 20
264.9932798379
 30
0.0
 11
236.4093400438
 21
264.6933414388
 31
0.0
  0
LINE
  5
139
100
AcDbEntity
  8
FLEXURES
  6
CONTINUOUS
 62
         1
100
AcDbLine
 10
239.9380388099
 20
278.7993819644
 30
0.0
 11
232.5236608542
 21
265.9575537727
 31
0.0
  0
LINE
  5
13A
100
AcDbEntity
  8
FLEXURES
  6
CONTINUOUS
 62
         1
100
AcDbLine
 10
239.4185404228
 20
279.0993203635
 30
0.0
 11
232.0041624671
 21
266.2574921717
 31
0.0
  0
LINE
  5
13B
100
AcDbEntity
  8
FLEXURES
  6
CONTINUOUS
 62
         1
100
AcDbLine
 10
247.2213552235
 20
275.0988654981
 30
0.0
 11
239.3075799483
 21
261.3918046417
 31
0.0
  0
LINE
  5
13C
100
AcDbEntity
  8
FLEXURES
  6
CONTINUOUS
 62
         1
100
AcDbLine
 10
243.2918656581
 20
276.6142254872
 30
0.0
 11
236.4093400438
 21
264.6933414388
 31
0.0
  0
LINE
  5
13D
100
AcDbEntity
  8
FLEXURES
  6
CONTINUOUS
 62
         1
100
AcDbLine
 10
242.772367271
 20
276.9141638863
 30
0.0
 11
235.8898416567
 21
264.9932798379
 31
0.0
  0
LINE
  5
13E
100
AcDbEntity
  8
FLEXURES
 62
         1
100
AcDbLine
 10
15.3769719165
 20
295.2387984582
 30
0.0
 11
15.3769719165
 21
294.6389304582
 31
0.0
  0
LINE
  5
13F
100
AcDbEntity
  8
FLEXURES
 62
         1
100
AcDbLine
 10
8.0669867714
 20
295.2387984582
 30
0.0
 11
8.0669867714
 21
294.6389304582
 31
0.0
  0
LINE
  5
140
100
AcDbEntity
  8
FLEXURES
 62
         1
100
AcDbLine
 10
7.4006718488
 20
280.3989016061
 30
0.0
 11
7.4006718488
 21
279.7990336061
 31
0.0
  0
LINE
  5
141
100
AcDbEntity
  8
OUTLINES
  6
CONTINUOUS
 62
         7
100
AcDbLine
 10
207.1390837181
 20
295.227054944
 30
0.0
 11
207.1390837181
 21
300.2259549441
 31
0.0
  0
LINE
  5
142
100
AcDbEntity
  8
FLEXURES
 62
         1
100
AcDbLine
 10
8.7784239165
 20
276.3747871061
 30
0.0
 11
7.4006718488
 21
276.3747871061
 31
0.0
  0
LINE
  5
143
100
AcDbEntity
  8
FLEXURES
 62
         1
100
AcDbLine
 10
7.4006718488
 20
276.3747871061
 30
0.0
 11
7.4006718488
 21
275.7749191061
 31
0.0
  0
LINE
  5
144
100
AcDbEntity
  8
FLEXURES
 62
         1
100
AcDbLine
 10
7.4006718488
 20
275.7749191061
 30
0.0
 11
8.7784239165
 21
275.7749191061
 31
0.0
  0
LINE
  5
145
100
AcDbEntity
  8
OUTLINES
  6
CONTINUOUS
 62
         7
100
AcDbLine
 10
176.1206991802
 20
294.5472045441
 30
0.0
 11
169.147443718
 21
282.4206656337
 31
0.0
  0
LINE
  5
146
100
AcDbEntity
  8
OUTLINES
  6
CONTINUOUS
 62
         7
100
AcDbLine
 10
241.2771252695
 20
299.8284264964
 30
0.0
 11
241.2750409892
 21
299.8320318298
 31
0.0
  0
LINE
  5
147
100
AcDbEntity
  8
FLEXURES
 62
         1
100
AcDbLine
 10
7.4006718488
 20
272.3506726061
 30
0.0
 11
7.4006718488
 21
271.7508046061
 31
0.0
  0
LINE
  5
148
100
AcDbEntity
  8
OUTLINES
  6
CONTINUOUS
 62
         7
100
AcDbLine
 10
231.7547203579
 20
266.614936324
 30
0.0
 11
237.2745534165
 21
266.614936324
 31
0.0
  0
LINE
  5
149
100
AcDbEntity
  8
OUTLINES
  6
CONTINUOUS
 62
         7
100
AcDbLine
 10
237.2745534165
 20
266.614936324
 30
0.0
 11
239.8158503957
 21
262.1941294363
 31
0.0
  0
LINE
  5
14A
100
AcDbEntity
  8
OUTLINES
  6
CONTINUOUS
 62
         7
100
AcDbLine
 10
237.2465483739
 20
294.547204544
 30
0.0
 11
239.7878453533
 21
298.9680114327
 31
0.0
  0
LINE
  5
14B
100
AcDbEntity
  8
OUTLINES
 62
         2
100
AcDbLine
 10
239.1320437118
 20
280.581070434
 30
0.0
 11
169.147443718
 21
280.581070434
 31
0.0
  0
LINE
  5
14C
100
AcDbEntity
  8
OUTLINES
 62
         2
100
AcDbLine
 10
204.1397437149
 20
280.581070434
 30
0.0
 11
204.1397437149
 21
267.4832358397
 31
0.0
  0
LINE
  5
14D
100
AcDbEntity
  8
OUTLINES
  6
CONTINUOUS
 62
         7
100
AcDbLine
 10
176.1206991802
 20
266.6149363234
 30
0.0
 11
169.147443718
 21
278.7414752337
 31
0.0
  0
LINE
  5
14E
100
AcDbEntity
  8
OUTLINES
  6
CONTINUOUS
 62
         7
100
AcDbLine
 10
169.147443718
 20
282.4206656337
 30
0.0
 11
169.147443718
 21
278.7414752337
 31
0.0
  0
LINE
  5
14F
100
AcDbEntity
  8
OUTLINES
  6
CONTINUOUS
 62
         7
100
AcDbLine
 10
239.8158503957
 20
262.1941294363
 30
0.0
 11
242.29204565
 21
260.7624782954
 31
0.0
  0
LINE
  5
150
100
AcDbEntity
  8
OUTLINES
  6
CONTINUOUS
 62
         7
100
AcDbLine
 10
240.5154376881
 20
299.3880870631
 30
0.0
 11
242.2853296058
 21
300.4112798067
 31
0.0
  0
LINE
  5
151
100
AcDbEntity
  8
OUTLINES
  6
CONTINUOUS
 62
         7
100
AcDbLine
 10
240.5154376881
 20
299.3880870631
 30
0.0
 11
239.7878453533
 21
298.9680114327
 31
0.0
  0
LINE
  5
152
100
AcDbEntity
  8
FLEXURES
 62
         1
100
AcDbLine
 10
15.9768399165
 20
284.416410604
 30
0.0
 11
15.3769719165
 21
284.416410604
 31
0.0
  0
LINE
  5
153
100
AcDbEntity
  8
FLEXURES
 62
         1
100
AcDbLine
 10
15.3769719165
 20
282.335380249
 30
0.0
 11
15.9768399165
 21
282.335380249
 31
0.0
  0
LINE
  5
154
100
AcDbEntity
  8
OUTLINES
  6
CONTINUOUS
 62
         7
100
AcDbLine
 10
249.2937315339
 20
272.8738105313
 30
0.0
 11
242.29204565
 21
260.7624782954
 31
0.0
  0
LINE
  5
155
100
AcDbEntity
  8
FLEXURES
 62
         1
100
AcDbLine
 10
16.0018344165
 20
267.8190388433
 30
0.0
 11
15.3769719165
 21
267.7332956083
 31
0.0
  0
LINE
  5
156
100
AcDbEntity
  8
OUTLINES
  6
CONTINUOUS
 62
         7
100
AcDbLine
 10
220.1362237149
 20
288.5793104338
 30
0.0
 11
220.1362237149
 21
272.5828304338
 31
0.0
  0
LINE
  5
157
100
AcDbEntity
  8
OUTLINES
  6
CONTINUOUS
 62
         7
100
AcDbLine
 10
249.2937315339
 20
288.2883303367
 30
0.0
 11
242.2853296058
 21
300.4112798067
 31
0.0
  0
LINE
  5
158
100
AcDbEntity
  8
OUTLINES
  6
CONTINUOUS
 62
         7
100
AcDbLine
 10
239.1320437118
 20
282.42066563
 30
0.0
 11
239.1320437118
 21
278.741475238
 31
0.0
  0
LINE
  5
159
100
AcDbEntity
  8
OUTLINES
  6
CONTINUOUS
 62
         7
100
AcDbLine
 10
232.1335837148
 20
272.5828304338
 30
0.0
 11
220.1362237149
 21
272.5828304338
 31
0.0
  0
LINE
  5
15A
100
AcDbEntity
  8
OUTLINES
  6
CONTINUOUS
 62
         7
100
AcDbLine
 10
232.1335837148
 20
288.5793104338
 30
0.0
 11
232.1335837148
 21
272.5828304338
 31
0.0
  0
LINE
  5
15B
100
AcDbEntity
  8
OUTLINES
  6
CONTINUOUS
 62
         7
100
AcDbLine
 10
232.1335837148
 20
288.5793104338
 30
0.0
 11
220.1362237149
 21
288.5793104338
 31
0.0
  0
LINE
  5
15C
100
AcDbEntity
  8
FLEXURES
 62
         1
100
AcDbLine
 10
15.3769719165
 20
269.8143259633
 30
0.0
 11
15.9768399165
 21
269.8143259633
 31
0.0
  0
LINE
  5
15D
100
AcDbEntity
  8
OUTLINES
  6
CONTINUOUS
 62
         7
100
AcDbLine
 10
176.1459037149
 20
288.5793104338
 30
0.0
 11
188.1432637149
 21
288.5793104338
 31
0.0
  0
LINE
  5
15E
100
AcDbEntity
  8
FLEXURES
 62
         1
100
AcDbLine
 10
57.5676879165
 20
267.7332956083
 30
0.0
 11
58.1675559165
 21
267.7332956083
 31
0.0
  0
LINE
  5
15F
100
AcDbEntity
  8
OUTLINES
  6
CONTINUOUS
 62
         7
100
AcDbLine
 10
176.1459037149
 20
288.5793104338
 30
0.0
 11
176.1459037149
 21
272.5828304338
 31
0.0
  0
LINE
  5
160
100
AcDbEntity
  8
OUTLINES
  6
CONTINUOUS
 62
         7
100
AcDbLine
 10
176.1459037149
 20
272.5828304338
 30
0.0
 11
188.1432637149
 21
272.5828304338
 31
0.0
  0
LINE
  5
161
100
AcDbEntity
  8
OUTLINES
  6
CONTINUOUS
 62
         7
100
AcDbLine
 10
188.1432637149
 20
288.5793104338
 30
0.0
 11
188.1432637149
 21
272.5828304338
 31
0.0
  0
LINE
  5
162
100
AcDbEntity
  8
OUTLINES
  6
CONTINUOUS
 62
         7
100
AcDbLine
 10
176.1206991802
 20
294.5472045441
 30
0.0
 11
201.1404037182
 21
294.5472045441
 31
0.0
  0
LINE
  5
163
100
AcDbEntity
  8
FLEXURES
 62
         1
100
AcDbLine
 10
58.1675559165
 20
269.8143259633
 30
0.0
 11
57.5676879165
 21
269.8143259633
 31
0.0
  0
LINE
  5
164
100
AcDbEntity
  8
FLEXURES
 62
         1
100
AcDbLine
 10
57.5676879165
 20
282.335380249
 30
0.0
 11
58.1675559165
 21
282.335380249
 31
0.0
  0
LINE
  5
165
100
AcDbEntity
  8
FLEXURES
  6
CONTINUOUS
 62
         1
100
AcDbLine
 10
135.8502963831
 20
292.7553899163
 30
0.0
 11
128.9441552342
 21
292.7553899163
 31
0.0
  0
LINE
  5
166
100
AcDbEntity
  8
FLEXURES
  6
CONTINUOUS
 62
         1
100
AcDbLine
 10
201.1404037182
 20
294.6271869441
 30
0.0
 11
208.0465448671
 21
294.6271869441
 31
0.0
  0
LINE
  5
167
100
AcDbEntity
  8
OUTLINES
  6
CONTINUOUS
 62
         7
100
AcDbLine
 10
207.1390837181
 20
294.547204544
 30
0.0
 11
207.1390837181
 21
294.887129744
 31
0.0
  0
LINE
  5
168
100
AcDbEntity
  8
OUTLINES
  6
CONTINUOUS
 62
         7
100
AcDbLine
 10
207.1390837181
 20
294.887129744
 30
0.0
 11
207.1390837181
 21
295.227054944
 31
0.0
  0
LINE
  5
169
100
AcDbEntity
  8
FLEXURES
  6
CONTINUOUS
 62
         1
100
AcDbLine
 10
201.1404037182
 20
295.2270549441
 30
0.0
 11
208.0465448671
 21
295.2270549441
 31
0.0
  0
LINE
  5
16A
100
AcDbEntity
  8
FLEXURES
  6
CONTINUOUS
 62
         3
100
AcDbLine
 10
207.3922631023
 20
294.8271429441
 30
0.0
 11
207.3896390191
 21
294.8316879896
 31
0.0
  0
LINE
  5
16B
100
AcDbEntity
  8
OUTLINES
 62
         7
100
AcDbLine
 10
110.8315962934
 20
251.4260696958
 30
0.0
 11
131.6270202934
 21
251.4260696958
 31
0.0
  0
LINE
  5
16C
100
AcDbEntity
  8
FLEXURES
  6
CONTINUOUS
 62
         1
100
AcDbLine
 10
201.1404037182
 20
295.2270549441
 30
0.0
 11
201.1404037182
 21
300.7658361441
 31
0.0
  0
LINE
  5
16D
100
AcDbEntity
  8
OUTLINES
  6
CONTINUOUS
 62
         7
100
AcDbLine
 10
201.1404037182
 20
295.2270549441
 30
0.0
 11
180.3449797182
 21
295.2270549441
 31
0.0
  0
LINE
  5
16E
100
AcDbEntity
  8
FLEXURES
  6
CONTINUOUS
 62
         1
100
AcDbLine
 10
200.5405357181
 20
300.3659241441
 30
0.0
 11
200.5405357181
 21
294.8271429441
 31
0.0
  0
LINE
  5
16F
100
AcDbEntity
  8
FLEXURES
  6
CONTINUOUS
 62
         1
100
AcDbLine
 10
196.5414157181
 20
294.8271429441
 30
0.0
 11
196.5414157181
 21
301.0324441441
 31
0.0
  0
LINE
  5
170
100
AcDbEntity
  8
FLEXURES
  6
CONTINUOUS
 62
         1
100
AcDbLine
 10
195.9415477181
 20
301.0324441441
 30
0.0
 11
195.9415477181
 21
294.8271429441
 31
0.0
  0
LINE
  5
171
100
AcDbEntity
  8
FLEXURES
  6
CONTINUOUS
 62
         1
100
AcDbLine
 10
189.9428677181
 20
294.8271429441
 30
0.0
 11
189.9428677181
 21
301.0324441441
 31
0.0
  0
LINE
  5
172
100
AcDbEntity
  8
OUTLINES
  6
CONTINUOUS
 62
         7
100
AcDbLine
 10
110.8315962932
 20
251.4260696958
 30
0.0
 11
110.8315962932
 21
252.0259376958
 31
0.0
  0
LINE
  5
173
100
AcDbEntity
  8
FLEXURES
  6
CONTINUOUS
 62
         1
100
AcDbLine
 10
110.8315962932
 20
252.0259376958
 30
0.0
 11
103.9254551445
 21
252.0259376958
 31
0.0
  0
LINE
  5
174
100
AcDbEntity
  8
FLEXURES
  6
CONTINUOUS
 62
         1
100
AcDbLine
 10
110.8315962932
 20
251.4260696958
 30
0.0
 11
103.9254551445
 21
251.4260696958
 31
0.0
  0
LINE
  5
175
100
AcDbEntity
  8
OUTLINES
  6
CONTINUOUS
 62
         3
100
AcDbLine
 10
104.5797369092
 20
251.8259816958
 30
0.0
 11
104.5823609924
 21
251.8214366504
 31
0.0
  0
LINE
  5
176
100
AcDbEntity
  8
FLEXURES
  6
CONTINUOUS
 62
         1
100
AcDbLine
 10
110.8315962932
 20
251.4260696958
 30
0.0
 11
110.8315962932
 21
245.8872884958
 31
0.0
  0
LINE
  5
177
100
AcDbEntity
  8
OUTLINES
  6
CONTINUOUS
 62
         7
100
AcDbLine
 10
131.6270202934
 20
251.4260696958
 30
0.0
 11
131.6270202934
 21
246.4271696958
 31
0.0
  0
LINE
  5
178
100
AcDbEntity
  8
FLEXURES
  6
CONTINUOUS
 62
         1
100
AcDbLine
 10
111.4314642934
 20
246.2872004958
 30
0.0
 11
111.4314642934
 21
251.8259816958
 31
0.0
  0
LINE
  5
179
100
AcDbEntity
  8
FLEXURES
  6
CONTINUOUS
 62
         1
100
AcDbLine
 10
115.4305842934
 20
251.8259816958
 30
0.0
 11
115.4305842934
 21
245.6206804958
 31
0.0
  0
LINE
  5
17A
100
AcDbEntity
  8
FLEXURES
  6
CONTINUOUS
 62
         1
100
AcDbLine
 10
116.0304522934
 20
245.6206804958
 30
0.0
 11
116.0304522934
 21
251.8259816958
 31
0.0
  0
LINE
  5
17B
100
AcDbEntity
  8
FLEXURES
  6
CONTINUOUS
 62
         1
100
AcDbLine
 10
122.0291322934
 20
251.8259816958
 30
0.0
 11
122.0291322934
 21
245.6206804958
 31
0.0
  0
LINE
  5
17C
100
AcDbEntity
  8
FLEXURES
  6
CONTINUOUS
 62
         1
100
AcDbLine
 10
122.6290002934
 20
245.6206804958
 30
0.0
 11
122.6290002934
 21
251.8259816958
 31
0.0
  0
LINE
  5
17D
100
AcDbEntity
  8
FLEXURES
  6
CONTINUOUS
 62
         1
100
AcDbLine
 10
126.0282522934
 20
245.6206804958
 30
0.0
 11
126.0282522934
 21
251.8259816959
 31
0.0
  0
LINE
  5
17E
100
AcDbEntity
  8
FLEXURES
  6
CONTINUOUS
 62
         1
100
AcDbLine
 10
126.6281202934
 20
251.8259816959
 30
0.0
 11
126.6281202934
 21
245.6206804958
 31
0.0
  0
LINE
  5
17F
100
AcDbEntity
  8
OUTLINES
  6
CONTINUOUS
 62
         7
100
AcDbLine
 10
104.8329162934
 20
246.4271696958
 30
0.0
 11
131.6270202934
 21
246.4271696958
 31
0.0
  0
LINE
  5
180
100
AcDbEntity
  8
FLEXURES
  6
CONTINUOUS
 62
         1
100
AcDbLine
 10
189.3429997181
 20
301.0324441441
 30
0.0
 11
189.3429997181
 21
294.8271429441
 31
0.0
  0
LINE
  5
181
100
AcDbEntity
  8
FLEXURES
  6
CONTINUOUS
 62
         1
100
AcDbLine
 10
185.9437477181
 20
301.0324441441
 30
0.0
 11
185.9437477181
 21
294.8271429441
 31
0.0
  0
LINE
  5
182
100
AcDbEntity
  8
FLEXURES
  6
CONTINUOUS
 62
         1
100
AcDbLine
 10
185.3438797181
 20
294.8271429441
 30
0.0
 11
185.3438797181
 21
301.0324441441
 31
0.0
  0
LINE
  5
183
100
AcDbEntity
  8
OUTLINES
  6
CONTINUOUS
 62
         7
100
AcDbLine
 10
207.1390837181
 20
300.2259549441
 30
0.0
 11
180.3449797181
 21
300.2259549441
 31
0.0
  0
LINE
  5
184
100
AcDbEntity
  8
FLEXURES
 62
         1
100
AcDbLine
 10
58.1675559165
 20
284.416410604
 30
0.0
 11
57.5676879165
 21
284.416410604
 31
0.0
  0
LINE
  5
185
100
AcDbEntity
  8
OUTLINES
  6
CONTINUOUS
 62
         7
100
AcDbLine
 10
182.1197992559
 20
261.0161683234
 30
0.0
 11
155.3256952559
 21
261.0161683234
 31
0.0
  0
LINE
  5
186
100
AcDbEntity
  8
FLEXURES
  6
CONTINUOUS
 62
         1
100
AcDbLine
 10
160.3245952559
 20
266.4149803234
 30
0.0
 11
160.3245952559
 21
260.2096791234
 31
0.0
  0
LINE
  5
187
100
AcDbEntity
  8
FLEXURES
  6
CONTINUOUS
 62
         1
100
AcDbLine
 10
160.9244632559
 20
260.2096791234
 30
0.0
 11
160.9244632559
 21
266.4149803234
 31
0.0
  0
LINE
  5
188
100
AcDbEntity
  8
FLEXURES
  6
CONTINUOUS
 62
         1
100
AcDbLine
 10
164.3237152559
 20
260.2096791234
 30
0.0
 11
164.3237152559
 21
266.4149803234
 31
0.0
  0
LINE
  5
189
100
AcDbEntity
  8
FLEXURES
  6
CONTINUOUS
 62
         1
100
AcDbLine
 10
164.9235832559
 20
266.4149803234
 30
0.0
 11
164.9235832559
 21
260.2096791234
 31
0.0
  0
LINE
  5
18A
100
AcDbEntity
  8
FLEXURES
  6
CONTINUOUS
 62
         1
100
AcDbLine
 10
170.9222632559
 20
260.2096791234
 30
0.0
 11
170.9222632559
 21
266.4149803234
 31
0.0
  0
LINE
  5
18B
100
AcDbEntity
  8
FLEXURES
  6
CONTINUOUS
 62
         1
100
AcDbLine
 10
171.5221312559
 20
266.4149803234
 30
0.0
 11
171.5221312559
 21
260.2096791234
 31
0.0
  0
LINE
  5
18C
100
AcDbEntity
  8
FLEXURES
  6
CONTINUOUS
 62
         1
100
AcDbLine
 10
175.5212512559
 20
260.8761991234
 30
0.0
 11
175.5212512559
 21
266.6149363234
 31
0.0
  0
LINE
  5
18D
100
AcDbEntity
  8
FLEXURES
  6
CONTINUOUS
 62
         1
100
AcDbLine
 10
176.1211192559
 20
266.0150683234
 30
0.0
 11
176.1211192559
 21
260.4762871234
 31
0.0
  0
LINE
  5
18E
100
AcDbEntity
  8
OUTLINES
  6
CONTINUOUS
 62
         3
100
AcDbLine
 10
182.3729786401
 20
266.4149803234
 30
0.0
 11
182.3703545568
 21
266.4104352779
 31
0.0
  0
LINE
  5
18F
100
AcDbEntity
  8
FLEXURES
  6
CONTINUOUS
 62
         1
100
AcDbLine
 10
176.1211192559
 20
266.0150683234
 30
0.0
 11
183.0272604045
 21
266.0150683234
 31
0.0
  0
LINE
  5
190
100
AcDbEntity
  8
OUTLINES
  6
CONTINUOUS
 62
         7
100
AcDbLine
 10
182.1197992559
 20
266.3549935234
 30
0.0
 11
182.1197992559
 21
266.0150683235
 31
0.0
  0
LINE
  5
191
100
AcDbEntity
  8
OUTLINES
  6
CONTINUOUS
 62
         7
100
AcDbLine
 10
182.1197992559
 20
266.6149363235
 30
0.0
 11
182.1197992559
 21
266.3549935234
 31
0.0
  0
LINE
  5
192
100
AcDbEntity
  8
FLEXURES
  6
CONTINUOUS
 62
         1
100
AcDbLine
 10
176.1211192559
 20
266.6149363234
 30
0.0
 11
183.0272604045
 21
266.6149363234
 31
0.0
  0
LINE
  5
193
100
AcDbEntity
  8
OUTLINES
  6
CONTINUOUS
 62
         7
100
AcDbLine
 10
176.1211192559
 20
266.0150683234
 30
0.0
 11
176.1211192559
 21
266.6149363234
 31
0.0
  0
LINE
  5
194
100
AcDbEntity
  8
OUTLINES
  6
CONTINUOUS
 62
         7
100
AcDbLine
 10
182.1197992559
 20
266.0150683235
 30
0.0
 11
182.1197992559
 21
261.0161683234
 31
0.0
  0
LINE
  5
195
100
AcDbEntity
  8
OUTLINES
  6
CONTINUOUS
 62
         7
100
AcDbLine
 10
155.3256952559
 20
266.0150683234
 30
0.0
 11
155.3256952559
 21
261.0161683234
 31
0.0
  0
LINE
  5
196
100
AcDbEntity
  8
FLEXURES
 62
         1
100
AcDbLine
 10
40.3409294178
 20
294.6389304582
 30
0.0
 11
40.3409294178
 21
295.2387984582
 31
0.0
  0
LINE
  5
197
100
AcDbEntity
  8
FLEXURES
 62
         1
100
AcDbLine
 10
40.3409294178
 20
295.2387984582
 30
0.0
 11
39.7716039165
 21
295.2387984582
 31
0.0
  0
LINE
  5
198
100
AcDbEntity
  8
FLEXURES
 62
         1
100
AcDbLine
 10
33.7729239165
 20
295.2387984582
 30
0.0
 11
32.9710274325
 21
295.2387984582
 31
0.0
  0
LINE
  5
199
100
AcDbEntity
  8
FLEXURES
 62
         1
100
AcDbLine
 10
32.9710274325
 20
295.2387984582
 30
0.0
 11
32.9710274325
 21
294.6389304582
 31
0.0
  0
LINE
  5
19A
100
AcDbEntity
  8
FLEXURES
 62
         1
100
AcDbLine
 10
57.8676219165
 20
294.6389304582
 30
0.0
 11
57.8676219165
 21
295.2387984582
 31
0.0
  0
LINE
  5
19B
100
AcDbEntity
  8
FLEXURES
 62
         1
100
AcDbLine
 10
65.3345100636
 20
295.2387984582
 30
0.0
 11
65.3345100636
 21
294.6389304582
 31
0.0
  0
LINE
  5
19C
100
AcDbEntity
  8
FLEXURES
 62
         1
100
AcDbLine
 10
64.7661039165
 20
257.5071012582
 30
0.0
 11
65.0503069901
 21
257.5071012582
 31
0.0
  0
LINE
  5
19D
100
AcDbEntity
  8
FLEXURES
 62
         1
100
AcDbLine
 10
65.0503069901
 20
257.5071012582
 30
0.0
 11
65.0503069901
 21
256.9072332582
 31
0.0
  0
LINE
  5
19E
100
AcDbEntity
  8
FLEXURES
 62
         1
100
AcDbLine
 10
58.7674239165
 20
257.5071012582
 30
0.0
 11
58.1675559165
 21
257.5071012582
 31
0.0
  0
LINE
  5
19F
100
AcDbEntity
  8
FLEXURES
 62
         1
100
AcDbLine
 10
58.1675559165
 20
257.5071012582
 30
0.0
 11
58.1675559165
 21
256.9072332582
 31
0.0
  0
LINE
  5
1A0
100
AcDbEntity
  8
FLEXURES
 62
         1
100
AcDbLine
 10
40.3409294178
 20
257.5071012582
 30
0.0
 11
40.3409294178
 21
256.9072332582
 31
0.0
  0
LINE
  5
1A1
100
AcDbEntity
  8
FLEXURES
 62
         1
100
AcDbLine
 10
32.9710274325
 20
257.5071012582
 30
0.0
 11
32.9710274325
 21
256.9072332582
 31
0.0
  0
LINE
  5
1A2
100
AcDbEntity
  8
FLEXURES
 62
         1
100
AcDbLine
 10
15.1264125268
 20
256.9072332582
 30
0.0
 11
15.1264125268
 21
257.5071012582
 31
0.0
  0
LINE
  5
1A3
100
AcDbEntity
  8
FLEXURES
 62
         1
100
AcDbLine
 10
8.4389975842
 20
257.5071012582
 30
0.0
 11
8.4389975842
 21
256.9072332582
 31
0.0
  0
LINE
  5
1A4
100
AcDbEntity
  8
FLEXURES
 62
         1
100
AcDbLine
 10
85.8123118311
 20
298.8140567164
 30
0.0
 11
86.4121798311
 21
298.8140567164
 31
0.0
  0
LINE
  5
1A5
100
AcDbEntity
  8
FLEXURES
 62
         1
100
AcDbLine
 10
86.4121798311
 20
298.8140567164
 30
0.0
 11
86.4121798311
 21
298.4141447164
 31
0.0
  0
LINE
  5
1A6
100
AcDbEntity
  8
FLEXURES
 62
         1
100
AcDbLine
 10
90.4112998311
 20
298.4141447164
 30
0.0
 11
90.4112998311
 21
298.6141007164
 31
0.0
  0
LINE
  5
1A7
100
AcDbEntity
  8
FLEXURES
 62
         1
100
AcDbLine
 10
90.4112998311
 20
298.6141007164
 30
0.0
 11
91.0111678311
 21
298.6141007164
 31
0.0
  0
LINE
  5
1A8
100
AcDbEntity
  8
FLEXURES
 62
         1
100
AcDbLine
 10
91.0111678311
 20
298.6141007164
 30
0.0
 11
91.0111678311
 21
298.4141447164
 31
0.0
  0
LINE
  5
1A9
100
AcDbEntity
  8
FLEXURES
 62
         1
100
AcDbLine
 10
97.0098478311
 20
298.4141447164
 30
0.0
 11
97.0098478311
 21
298.8140567164
 31
0.0
  0
LINE
  5
1AA
100
AcDbEntity
  8
FLEXURES
 62
         1
100
AcDbLine
 10
97.0098478311
 20
298.8140567164
 30
0.0
 11
97.6097158311
 21
298.8140567164
 31
0.0
  0
LINE
  5
1AB
100
AcDbEntity
  8
FLEXURES
 62
         1
100
AcDbLine
 10
97.6097158311
 20
298.8140567164
 30
0.0
 11
97.6097158311
 21
298.4141447164
 31
0.0
  0
LINE
  5
1AC
100
AcDbEntity
  8
FLEXURES
 62
         1
100
AcDbLine
 10
101.0089678311
 20
298.4141447164
 30
0.0
 11
101.0089678311
 21
298.8940391163
 31
0.0
  0
LINE
  5
1AD
100
AcDbEntity
  8
FLEXURES
 62
         1
100
AcDbLine
 10
101.0089678311
 20
298.8940391163
 30
0.0
 11
101.6088358311
 21
298.8940391163
 31
0.0
  0
LINE
  5
1AE
100
AcDbEntity
  8
FLEXURES
 62
         1
100
AcDbLine
 10
101.6088358311
 20
298.8940391163
 30
0.0
 11
101.6088358311
 21
298.4141447164
 31
0.0
  0
LINE
  5
1AF
100
AcDbEntity
  8
FLEXURES
 62
         1
100
AcDbLine
 10
101.6088358311
 20
292.8753635164
 30
0.0
 11
101.6088358311
 21
292.6754075164
 31
0.0
  0
LINE
  5
1B0
100
AcDbEntity
  8
FLEXURES
 62
         1
100
AcDbLine
 10
101.6088358311
 20
292.6754075164
 30
0.0
 11
101.0089678311
 21
292.6754075164
 31
0.0
  0
LINE
  5
1B1
100
AcDbEntity
  8
FLEXURES
 62
         1
100
AcDbLine
 10
101.0089678311
 20
292.6754075164
 30
0.0
 11
101.0089678311
 21
292.8753635164
 31
0.0
  0
LINE
  5
1B2
100
AcDbEntity
  8
FLEXURES
 62
         1
100
AcDbLine
 10
97.6097158311
 20
292.8753635164
 30
0.0
 11
97.0098478311
 21
292.8753635164
 31
0.0
  0
LINE
  5
1B3
100
AcDbEntity
  8
FLEXURES
 62
         1
100
AcDbLine
 10
91.0111678311
 20
292.8753635164
 30
0.0
 11
90.4112998311
 21
292.8753635164
 31
0.0
  0
LINE
  5
1B4
100
AcDbEntity
  8
FLEXURES
 62
         1
100
AcDbLine
 10
86.4121798311
 20
292.6754075164
 30
0.0
 11
85.8123118311
 21
292.6754075164
 31
0.0
  0
LINE
  5
1B5
100
AcDbEntity
  8
FLEXURES
 62
         1
100
AcDbLine
 10
78.9061706822
 20
293.2752755164
 30
0.0
 11
78.9061706822
 21
292.6754075164
 31
0.0
  0
LINE
  5
1B6
100
AcDbEntity
  8
FLEXURES
 62
         1
100
AcDbLine
 10
78.9061706822
 20
292.6754075164
 30
0.0
 11
78.9549871945
 21
292.737647569
 31
0.0
  0
LINE
  5
1B7
100
AcDbEntity
  8
FLEXURES
 62
         1
100
AcDbLine
 10
128.9441552342
 20
292.7553899163
 30
0.0
 11
128.9441552342
 21
293.3552579163
 31
0.0
  0
LINE
  5
1B8
100
AcDbEntity
  8
FLEXURES
 62
         1
100
AcDbLine
 10
135.8502963828
 20
292.7553899163
 30
0.0
 11
136.4501643831
 21
292.7553899163
 31
0.0
  0
LINE
  5
1B9
100
AcDbEntity
  8
FLEXURES
 62
         1
100
AcDbLine
 10
136.4501643831
 20
292.7553899163
 30
0.0
 11
136.4501643831
 21
292.9553459163
 31
0.0
  0
LINE
  5
1BA
100
AcDbEntity
  8
FLEXURES
 62
         1
100
AcDbLine
 10
135.8502963828
 20
298.8940391163
 30
0.0
 11
136.4501643831
 21
298.8940391163
 31
0.0
  0
LINE
  5
1BB
100
AcDbEntity
  8
FLEXURES
 62
         1
100
AcDbLine
 10
136.4501643831
 20
298.8940391163
 30
0.0
 11
136.4501643831
 21
298.4941271163
 31
0.0
  0
LINE
  5
1BC
100
AcDbEntity
  8
FLEXURES
 62
         1
100
AcDbLine
 10
140.4492843831
 20
298.4941271163
 30
0.0
 11
140.4492843831
 21
298.8940391163
 31
0.0
  0
LINE
  5
1BD
100
AcDbEntity
  8
FLEXURES
 62
         1
100
AcDbLine
 10
140.4492843831
 20
298.8940391163
 30
0.0
 11
141.0491523831
 21
298.8940391163
 31
0.0
  0
LINE
  5
1BE
100
AcDbEntity
  8
FLEXURES
 62
         1
100
AcDbLine
 10
141.0491523831
 20
298.8940391163
 30
0.0
 11
141.0491523831
 21
298.4941271163
 31
0.0
  0
LINE
  5
1BF
100
AcDbEntity
  8
FLEXURES
 62
         1
100
AcDbLine
 10
141.0491523831
 20
292.9553459163
 30
0.0
 11
140.4492843831
 21
292.9553459163
 31
0.0
  0
LINE
  5
1C0
100
AcDbEntity
  8
FLEXURES
 62
         1
100
AcDbLine
 10
147.0478323831
 20
292.9553459163
 30
0.0
 11
147.6477003831
 21
292.9553459163
 31
0.0
  0
LINE
  5
1C1
100
AcDbEntity
  8
FLEXURES
 62
         1
100
AcDbLine
 10
151.0469523831
 20
292.9553459163
 30
0.0
 11
151.6468203831
 21
292.9553459163
 31
0.0
  0
LINE
  5
1C2
100
AcDbEntity
  8
FLEXURES
 62
         1
100
AcDbLine
 10
151.6468203831
 20
298.4941271163
 30
0.0
 11
151.5801683831
 21
298.6940831163
 31
0.0
  0
LINE
  5
1C3
100
AcDbEntity
  8
FLEXURES
 62
         1
100
AcDbLine
 10
151.5801683831
 20
298.6940831163
 30
0.0
 11
151.0469523831
 21
298.6940831163
 31
0.0
  0
LINE
  5
1C4
100
AcDbEntity
  8
FLEXURES
 62
         1
100
AcDbLine
 10
151.0469523831
 20
298.6940831163
 30
0.0
 11
151.0469523831
 21
298.4941271163
 31
0.0
  0
LINE
  5
1C5
100
AcDbEntity
  8
FLEXURES
 62
         1
100
AcDbLine
 10
147.6477003831
 20
298.4941271163
 30
0.0
 11
147.6477003831
 21
298.8940391163
 31
0.0
  0
LINE
  5
1C6
100
AcDbEntity
  8
FLEXURES
 62
         1
100
AcDbLine
 10
147.6477003831
 20
298.8940391163
 30
0.0
 11
147.0478323831
 21
298.8940391163
 31
0.0
  0
LINE
  5
1C7
100
AcDbEntity
  8
FLEXURES
 62
         1
100
AcDbLine
 10
147.0478323831
 20
298.8940391163
 30
0.0
 11
147.0478323831
 21
298.4941271163
 31
0.0
  0
LINE
  5
1C8
100
AcDbEntity
  8
FLEXURES
 62
         1
100
AcDbLine
 10
103.9254551445
 20
252.0259376958
 30
0.0
 11
103.9254551445
 21
251.4260696958
 31
0.0
  0
LINE
  5
1C9
100
AcDbEntity
  8
FLEXURES
 62
         1
100
AcDbLine
 10
110.8315962934
 20
252.0259376959
 30
0.0
 11
111.4314642934
 21
252.0259376959
 31
0.0
  0
LINE
  5
1CA
100
AcDbEntity
  8
FLEXURES
 62
         1
100
AcDbLine
 10
111.4314642934
 20
252.0259376959
 30
0.0
 11
111.4314642934
 21
251.8259816958
 31
0.0
  0
LINE
  5
1CB
100
AcDbEntity
  8
FLEXURES
 62
         1
100
AcDbLine
 10
111.4314642934
 20
246.2872004958
 30
0.0
 11
111.4314642934
 21
245.8872884958
 31
0.0
  0
LINE
  5
1CC
100
AcDbEntity
  8
FLEXURES
 62
         1
100
AcDbLine
 10
111.4314642934
 20
245.8872884958
 30
0.0
 11
110.8315962932
 21
245.8872884958
 31
0.0
  0
LINE
  5
1CD
100
AcDbEntity
  8
FLEXURES
 62
         1
100
AcDbLine
 10
115.4305842934
 20
251.8259816958
 30
0.0
 11
116.0304522934
 21
251.8259816958
 31
0.0
  0
LINE
  5
1CE
100
AcDbEntity
  8
FLEXURES
 62
         1
100
AcDbLine
 10
116.0304522934
 20
245.6206804958
 30
0.0
 11
115.4305842934
 21
245.6206804958
 31
0.0
  0
LINE
  5
1CF
100
AcDbEntity
  8
FLEXURES
 62
         1
100
AcDbLine
 10
122.0291322934
 20
251.8259816958
 30
0.0
 11
122.6290002934
 21
251.8259816958
 31
0.0
  0
LINE
  5
1D0
100
AcDbEntity
  8
FLEXURES
 62
         1
100
AcDbLine
 10
122.6290002934
 20
245.6206804958
 30
0.0
 11
122.0291322934
 21
245.6206804958
 31
0.0
  0
LINE
  5
1D1
100
AcDbEntity
  8
FLEXURES
 62
         1
100
AcDbLine
 10
126.0282522934
 20
251.8259816959
 30
0.0
 11
126.6281202934
 21
251.8259816959
 31
0.0
  0
LINE
  5
1D2
100
AcDbEntity
  8
FLEXURES
 62
         1
100
AcDbLine
 10
126.6281202934
 20
245.6206804958
 30
0.0
 11
126.0282522934
 21
245.6206804958
 31
0.0
  0
LINE
  5
1D3
100
AcDbEntity
  8
FLEXURES
 62
         1
100
AcDbLine
 10
160.3245952559
 20
260.2096791234
 30
0.0
 11
160.9244632559
 21
260.2096791234
 31
0.0
  0
LINE
  5
1D4
100
AcDbEntity
  8
FLEXURES
 62
         1
100
AcDbLine
 10
164.3237152559
 20
260.2096791234
 30
0.0
 11
164.9235832559
 21
260.2096791234
 31
0.0
  0
LINE
  5
1D5
100
AcDbEntity
  8
FLEXURES
 62
         1
100
AcDbLine
 10
164.9235832559
 20
260.2096791234
 30
0.0
 11
164.9242364608
 21
260.8888599139
 31
0.0
  0
LINE
  5
1D6
100
AcDbEntity
  8
FLEXURES
 62
         1
100
AcDbLine
 10
170.9222632559
 20
260.2096791234
 30
0.0
 11
171.5221312559
 21
260.2096791234
 31
0.0
  0
LINE
  5
1D7
100
AcDbEntity
  8
FLEXURES
 62
         1
100
AcDbLine
 10
175.5212512559
 20
260.8761991234
 30
0.0
 11
175.5212512559
 21
260.4762871234
 31
0.0
  0
LINE
  5
1D8
100
AcDbEntity
  8
FLEXURES
 62
         1
100
AcDbLine
 10
175.5212512559
 20
260.4762871234
 30
0.0
 11
176.1211192559
 21
260.4762871234
 31
0.0
  0
LINE
  5
1D9
100
AcDbEntity
  8
FLEXURES
 62
         1
100
AcDbLine
 10
160.3245952559
 20
266.4149803234
 30
0.0
 11
160.9244632559
 21
266.4149803234
 31
0.0
  0
LINE
  5
1DA
100
AcDbEntity
  8
FLEXURES
 62
         1
100
AcDbLine
 10
164.3237152559
 20
266.4149803234
 30
0.0
 11
164.9235832559
 21
266.4149803234
 31
0.0
  0
LINE
  5
1DB
100
AcDbEntity
  8
FLEXURES
 62
         1
100
AcDbLine
 10
170.9222632559
 20
266.4149803234
 30
0.0
 11
171.5221312559
 21
266.4149803234
 31
0.0
  0
LINE
  5
1DC
100
AcDbEntity
  8
FLEXURES
 62
         1
100
AcDbLine
 10
175.5212512559
 20
266.6149363234
 30
0.0
 11
176.1206991802
 21
266.6149363234
 31
0.0
  0
LINE
  5
1DD
100
AcDbEntity
  8
FLEXURES
 62
         1
100
AcDbLine
 10
183.0272604045
 20
266.0150683234
 30
0.0
 11
183.0272604045
 21
266.6149363234
 31
0.0
  0
LINE
  5
1DE
100
AcDbEntity
  8
FLEXURES
 62
         1
100
AcDbLine
 10
185.3438797181
 20
294.8271429441
 30
0.0
 11
185.9437477181
 21
294.8271429441
 31
0.0
  0
LINE
  5
1DF
100
AcDbEntity
  8
FLEXURES
 62
         1
100
AcDbLine
 10
189.3429997181
 20
294.8271429441
 30
0.0
 11
189.9428677181
 21
294.8271429441
 31
0.0
  0
LINE
  5
1E0
100
AcDbEntity
  8
FLEXURES
 62
         1
100
AcDbLine
 10
195.9415477181
 20
294.8271429441
 30
0.0
 11
196.5414157181
 21
294.8271429441
 31
0.0
  0
LINE
  5
1E1
100
AcDbEntity
  8
FLEXURES
 62
         1
100
AcDbLine
 10
200.5405357181
 20
294.8271429441
 30
0.0
 11
201.1404037182
 21
294.5472045441
 31
0.0
  0
LINE
  5
1E2
100
AcDbEntity
  8
FLEXURES
 62
         1
100
AcDbLine
 10
201.1404037182
 20
300.7658361441
 30
0.0
 11
200.5405357181
 21
300.7658361441
 31
0.0
  0
LINE
  5
1E3
100
AcDbEntity
  8
FLEXURES
 62
         1
100
AcDbLine
 10
200.5405357181
 20
300.7658361441
 30
0.0
 11
200.5405357181
 21
300.3659241441
 31
0.0
  0
LINE
  5
1E4
100
AcDbEntity
  8
FLEXURES
 62
         1
100
AcDbLine
 10
196.5414157181
 20
301.0324441441
 30
0.0
 11
195.9415477181
 21
301.0324441441
 31
0.0
  0
LINE
  5
1E5
100
AcDbEntity
  8
FLEXURES
 62
         1
100
AcDbLine
 10
189.9428677181
 20
301.0324441441
 30
0.0
 11
189.3429997181
 21
301.0324441441
 31
0.0
  0
LINE
  5
1E6
100
AcDbEntity
  8
FLEXURES
 62
         1
100
AcDbLine
 10
185.9437477181
 20
301.0324441441
 30
0.0
 11
185.3438797181
 21
301.0324441441
 31
0.0
  0
LINE
  5
1E7
100
AcDbEntity
  8
FLEXURES
 62
         1
100
AcDbLine
 10
208.0465448671
 20
295.2270549441
 30
0.0
 11
208.0465448671
 21
294.6271869441
 31
0.0
  0
LINE
  5
1E8
100
AcDbEntity
  8
FLEXURES
 62
         1
100
AcDbLine
 10
209.9585119096
 20
260.2096791235
 30
0.0
 11
210.5583799096
 21
260.2096791235
 31
0.0
  0
LINE
  5
1E9
100
AcDbEntity
  8
FLEXURES
 62
         1
100
AcDbLine
 10
213.9576319096
 20
260.2096791235
 30
0.0
 11
214.5574999096
 21
260.2096791235
 31
0.0
  0
LINE
  5
1EA
100
AcDbEntity
  8
FLEXURES
 62
         1
100
AcDbLine
 10
220.5561799096
 20
260.2096791235
 30
0.0
 11
221.1560479096
 21
260.2096791235
 31
0.0
  0
LINE
  5
1EB
100
AcDbEntity
  8
FLEXURES
 62
         1
100
AcDbLine
 10
225.1551679096
 20
260.8761991235
 30
0.0
 11
225.1551679096
 21
260.4762871235
 31
0.0
  0
LINE
  5
1EC
100
AcDbEntity
  8
FLEXURES
 62
         1
100
AcDbLine
 10
225.1551679096
 20
260.4762871235
 30
0.0
 11
225.7550359096
 21
260.4762871235
 31
0.0
  0
LINE
  5
1ED
100
AcDbEntity
  8
FLEXURES
 62
         1
100
AcDbLine
 10
225.1551679096
 20
266.4149803235
 30
0.0
 11
225.7550359096
 21
266.6149363234
 31
0.0
  0
LINE
  5
1EE
100
AcDbEntity
  8
FLEXURES
 62
         1
100
AcDbLine
 10
221.1560479096
 20
266.4149803235
 30
0.0
 11
220.5561799096
 21
266.4149803235
 31
0.0
  0
LINE
  5
1EF
100
AcDbEntity
  8
FLEXURES
 62
         1
100
AcDbLine
 10
214.5574999096
 20
266.4149803235
 30
0.0
 11
213.9576319096
 21
266.4149803235
 31
0.0
  0
LINE
  5
1F0
100
AcDbEntity
  8
FLEXURES
 62
         1
100
AcDbLine
 10
210.5583799096
 20
266.4149803235
 30
0.0
 11
209.9585119096
 21
266.4149803235
 31
0.0
  0
CIRCLE
  5
1F1
100
AcDbEntity
  8
OUTLINES
 62
         7
100
AcDbCircle
 10
9.77808438
 20
291.748884175
 30
0.0
 40
0.099978
  0
CIRCLE
  5
1F2
100
AcDbEntity
  8
OUTLINES
 62
         7
100
AcDbCircle
 10
9.77808438
 20
290.749104175
 30
0.0
 40
0.099978
  0
CIRCLE
  5
1F3
100
AcDbEntity
  8
OUTLINES
 62
         7
100
AcDbCircle
 10
63.7663239165
 20
292.048818175
 30
0.0
 40
0.099978
  0
CIRCLE
  5
1F4
100
AcDbEntity
  8
OUTLINES
 62
         7
100
AcDbCircle
 10
63.7663239165
 20
291.049038175
 30
0.0
 40
0.099978
  0
CIRCLE
  5
1F5
100
AcDbEntity
  8
OUTLINES
 62
         7
100
AcDbCircle
 10
36.7722639165
 20
270.9678271669
 30
0.0
 40
0.099978
  0
CIRCLE
  5
1F6
100
AcDbEntity
  8
OUTLINES
 62
         7
100
AcDbCircle
 10
36.7722639165
 20
269.9680471669
 30
0.0
 40
0.099978
  0
CIRCLE
  5
1F7
100
AcDbEntity
  8
OUTLINES
  6
CONTINUOUS
 62
         7
100
AcDbCircle
 10
81.8117673076
 20
284.601022891
 30
0.0
 40
0.099978
  0
CIRCLE
  5
1F8
100
AcDbEntity
  8
OUTLINES
  6
CONTINUOUS
 62
         7
100
AcDbCircle
 10
82.8115473076
 20
284.601022891
 30
0.0
 40
0.099978
  0
CIRCLE
  5
1F9
100
AcDbEntity
  8
OUTLINES
 62
         7
100
AcDbCircle
 10
82.8115473076
 20
260.1003223213
 30
0.0
 40
0.099978
  0
CIRCLE
  5
1FA
100
AcDbEntity
  8
OUTLINES
 62
         7
100
AcDbCircle
 10
81.8117673076
 20
260.1003223213
 30
0.0
 40
0.099978
  0
ENDSEC
  0
SECTION
  2
OBJECTS
  0
DICTIONARY
  5
19
100
AcDbDictionary
  3
ACAD_GROUP
350
1A
  3
ACAD_MLINESTYLE
350
1B
  0
DICTIONARY
  5
1A
102
{ACAD_REACTORS
330
19
102
}
100
AcDbDictionary
  0
DICTIONARY
  5
1B
102
{ACAD_REACTORS
330
19
102
}
100
AcDbDictionary
  3
STANDARD
350
1C
  0
MLINESTYLE
  5
1C
102
{ACAD_REACTORS
330
1B
102
}
100
AcDbMlineStyle
  2
STANDARD
 70
         0
  3

 62
         0
 51
90.0
 52
90.0
 71
         2
 49
0.5
 62
       256
  6
BYLAYER
 49
-0.5
 62
       256
  6
BYLAYER
  0
ENDSEC
  0
EOF
